Song name
# A B C D E F G H I J K L M N O P Q R S T U V W X Y Z

Seven Mary Three - Hammer And A Stone tab

Hammer and a Stone - Seven Mary Three
transcribed by: Dave Neufeld

Picking pattern:

F

e-----------------------------------------------|
B-------1---1---1------------1----1----1--------|
G---2----2---2---2--2----2----2----2----2---2---|
D-3--3----3---3---3----3--3----3----3-----3-----|
A-----------------------------------------------|
E-----------------------------------------------|

C

e--------------------------------------------|
B------1---1---1-----------1---1---1---------|
G-------0---0---0-0---------0---0---0--0-----|
D---2----2---2---2-----2-----2---2---2-------|
A-3--3----------------3--3-------------------|
E--------------------------------------------|

Am

e---------------------------------------------------|
B------1---1---1------------------------------------|
G-------2---2---2--2--------------------------------|
D---2----2---2---2----------------------------------|
A-0--0----------------------------------------------|
E---------------------------------------------------|

G

e----------------------------------------|
B-------0---3---3------------------------|
G--------0---0---0--0--------------------|
D---0-----0---0---0----------------------|
A----------------------------------------|
E-3---3----------------------------------|

VERSES: F - C

CHORUS: Am - F - C - G

I'm digging through the darkness
Because I'm a long wall miner
Following a road down
Just so I can sit beside her
I'm a page torn from your novel
Beneath a magnet on your fridge
I'm the stars stuck on your ceiling
So I can watch you while your sleeping

Would you remember me
Do you remember me because
I wanted you so bad
Do you remember me
Do you remember me because
Everything we had

Was like a hammer to a stone
Wrapped like a fender around a tree
The curiosity in you
And all the emptiness in me

Digging through the vices
I don't know where the inside is
So heres my dirty little secret
And I bet you, you can't keep it
I'm a page torn from your novel
A single flower in your lawn
If I'm not everything you wished for
How come you miss me when I'm gone

Do you remember me
Do you remember me because
I wanted you so bad
Do you remember me
Do you remember me because
Everything we have

Was like a hammer to a stone
Wrapped like a fender around a tree
The curiosity in you
And all the emptiness in me

They say a diamond only whispers
To us when we are alone
It's just forever's little trick
To help a hammer find a stone
To help a hammer find a stone
Tap to rate this tab
# A B C D E F G H I J K L M N O P Q R S T U V W X Y Z