Song name
# A B C D E F G H I J K L M N O P Q R S T U V W X Y Z

Seven Mary Three - She Wants Results tab

Help us improve GuitareTab! Take a short survey!
She Wants Results - Seven Mary Three

transcribed by: Dave Neufeld

First Verse:
e------------------------------------------------------------------------------------------|
B------------------------------------------------------------------------------------------|
G--7--7--7--7-----7---7---7---7---7--7----7----7----7----7---------------------------------|
D----7------7---------7--------7-------7---------7---------7-------------------------------|
A-5-----5--------7--------7--------9-------9----------9---------9\\\7\\\5------------------|
E------------------------------------------------------------------------------------------|

Chorus:

Lay me down tonight....

___G___________________G/F#_____________________Em7
e----3----------3----------5------------5----------3p0---------3p0-------3p0------3p0------------|
B------3----------3----------3------------3--------------3------------3----------------------0---|
G--------0----------0-----------0-----------0----------------------------------------------------|
D------------------------------------------------------------------------------------------------|
A------------------------------------------------------------------------------------------------|
E-3---------3----------2-----------2------------0-----------0-----------0---------0--------------|

From now on the verses are a bit different:

e----5--------5--------------------------------------------------------------------------------|
B------7--------7---------8p7------8p7-----8p7-----8p7----8p7----------------------------------|
G--------7--------7------------7---------7---------7--------7--------7-------------------------|
D----------------------------------------------------------------------------------------------|
A-----------------------7----------7----------9-------9--------9--------9/////7/////5----------|
E-5--------5-----------------------------------------------------------------------------------|

I'm gonna make my break
Bue can a whole life rearranged
The only chance I have
To keep her safe

Lay me down tonight
With your broken heart
Baby wants results
Or a new start

Am I half the man
That I said I was?
If I promised them
Why didn't I show up

Lay me down tonight
With your broken heart
Baby wants results
Or a new start

Can I swim across
This faded atmosphere?
I'd say anything
Just to keep you here
Lay me down tonight

With your broken heart
Baby wants results
She said she wants results
Baby wants results
Or a new start
Related for She Wants Results tab