Song name
# A B C D E F G H I J K L M N O P Q R S T U V W X Y Z

Seven Mary Three - My My tab

e: Tue, 29 Oct 1996 17:02:28 -0600
From: HENDRICKSON 
Subject: Artist:7 mary 3 Tab:My,My

Normal tuning.


E-----------------------------------------------------------
B-----------------------------------------------------------
G-----------------------------------------------------------
D---5--5--5--x-x-x--7--7--7--x-x-x--9--9--9--x-x-x--5--5--5-
A---5--5--5--x-x-x--7--7--7--x-x-x--9--9--9--x-x-x--5--5--5-
E---3--3--3--x-x-x--5--5--5--x-x-x--7--7--7--x-x-x--7--7--7-

Play that during the verses...get the beat from the album.  Play it 
during the chorus by striking each chord one without the muting.

E---------------------------------------------------------------------
B----3-------3------3--------3----------------------------------------
G-----0-------0------0--------0---------------------------------------
D------0-------0------0--------0--------------------------------------
A-----------0-----2------0--------------------------------------------
E--3------------------------------------------------------------------


Play the during the "Don't ya` leave me don't you go." part.


I have know idea about the solo.  If you know it send it to: 
jon-erik@juno.com.

Laters.
Tap to rate this tab
 
# A B C D E F G H I J K L M N O P Q R S T U V W X Y Z