Song name
# A B C D E F G H I J K L M N O P Q R S T U V W X Y Z

Seven Mary Three - You Think Too Much chords

Highlighted       Show chord diagrams
You Think Too Much - Seven Mary Three
transcribed by: Dave Neufeld

Riff 1
e----------------------------------------------------|
B----------------------------------------------------|
G-//2-1h2-2-1h2///4-4-1h2----------------------------|
D----------------------------------------------------|
A----------------------------------------------------|
E----------------------------------------------------|

Riff 2
e----------------------------------------------------|
B--------------------5bb7rr5-------------------------|
G-1h2-1h2///4--1h2-----------------------------------|
D----------------------------------------------------|
A----------------------------------------------------|
E----------------------------------------------------|

Riff 3
e----------------------------------------------------|
B---5--4--2------------------------------------------|
G------------4--2--1---------------------------------|
D---------------------4--2---------------------------|
A----------------------------------------------------|
E----------------------------------------------------|

Riff 4
e-//4bb5rr4p2p0--------------------------------------|
B----------------------------------------------------|
G----------------------------------------------------|
D----------------------------------------------------|
A----------------------------------------------------|
E----------------------------------------------------|

Riff 5
e---------4------------------------------------------|
B----------------------------------------------------|
G--2///4---------------------------------------------|
D----------------------------------------------------|
A----------------------------------------------------|
E----------------------------------------------------|

Intro:


________(Riff 1)
E - B7 - F#m - A

____(Riff 2)
E - B7 - F#m - A

E__________B7_________F#m
When there's a ship going down

_________A
For every move you make

E_____B7______F#m
And a hum in your head

____________A
That's keeping you awake

_______E__________B7
You're a high school heart

F#m_________A
Who's never satisfied

Am_____________________
Kissing complicated ways to die

E_________B7____________F#m
We live in tunnels under pressure

_________A
Are we undermined


_______________________(riff 3)

E________B7___________F#m
Keep your name on your shirt

_______A
And enemies inside

E______B7________F#m
Moving closer into focus

_________A
Can you see the cracks

Am_Asus2_Am_Asus4_Am ___(kinda blending the lead in here)
I know just how bad

Asus2_Am_Asus4
You want it back

E____B7______A
Hey, look at you now

______________________E
You're like a flower growing up

_______B7_____A
From a concrete box

_______________E_____B7
In the bottom of a plastic cup

___A__________
Of wishes you had

D_____________
Keep your head up

_________A___________
Because it's never as bad as

_____E_______B7
You think, you think,

____F#m_____A
You think too much

___E________B7
You think, you think

_____A________
You think too much

E_______B7__________F#m
Does every laugh seem to die

________A
In your gravity

E_______B7
Turns to dust

_______F#m____
Do you sing a song

____(Riff 4)
______A__________
Good song in your sleep

E______B7__________F#m
All the anxiousness and worry

_______A
In your shoulders tied

Am_Asus2_Am_Asus4_Am
I know what you'd do

Asus2_Am_Asus4
With that tonight

E_____B7________A
Hey, look at you now

_____________________E
You're like a flower growing up

_______B7____A
From a concrete box

______________E_____B7
To the bottom of a plastic cup

____A________
Of wishes you had

D_____________
Keep your head up

__________A
Because it's never as bad

F#m________A______
As you might think about

____E________
This road it winds

___B_________F#m
It keeps on rolling out

__________A__________
If you'd have paid my shade

__E_________
Believe you free


B_____________
Pavement giving out

F#m_________Am_Asus2_Am
Everything we hide

_______________
Is a little light inside

E_____B7______A
Hey, look at you now

_____________________E
You're like a flower growing up

________B7___A
From a concrete box

_______________E____B7
To the bottom of a plastic cup

___A
Of wishes you had

D_____________
Keep your head up

__________A
Because it's never as bad as you think

E____B7______A
Hey, look at you now

_____________________E
You're like a flower growing up

________B7___A
From a concrete box

_______________E____B7
To the bottom of a plastic cup

___A_________
Of wishes you had

D_____________
Keep your head up

___________Am
Because it's never as bad

______E__(Riff 5)
As you think
Tap to rate this tab
# A B C D E F G H I J K L M N O P Q R S T U V W X Y Z