Song name
# A B C D E F G H I J K L M N O P Q R S T U V W X Y Z

Seven Mary Three - Dreaming Against Me chords

Highlighted       Show chord diagrams
Dreaming Against Me - Seven Mary Three
transcribed by: Dave Neufeld

Chords:
G: x 10 9 0 8 10
C: x x 10 9 8 10
D: x x 0 7 7 10 or sometimes x x 0 7 7 5

pick/strum pattens - always with small variations and never static
- but here's the basic idea:

G

e:----------------------------------10--------10------10--10-----------------------10------------|
B:-----8-8---------8--------------8---------8--------8----8---------8---------------8-8------8---|
G:-----0-0---------0-----------------0------0--------0--------------0----------0-------0------0--|
D:--9---------------9------9---------9------9-----9-----------9-----9--9-----9----------9--------|
A:-10--------10------10----10--------10------10----------10----------10------------10------------|
E:-----------------------------------------------------------------------------------------------|

C


e:----------------------------------10--------10------10-----10----------------10-------10-------|
B:-----8-8---------8--------------8---------8--------8--------8-------8--------8--8------8-------|
G:-----9-9---------9------9----------9------9----------9-----9-------9------------9------9-------|
D:--10------10-------10----10--------10------10------10------10----10---------10-----------------|
A:-----------------------------------------------------------------------------------------------|
E:-----------------------------------------------------------------------------------------------|

D - based on where it is in the pre-verse or chorus, substitute the
other D chord formation where e10 becomes e5

e:-----10------------------10---------10----10-------10------------10------10-------------------|
B:-----7---7---7---7------7---7-----7------7---7----7-------7------7--------7-------------------|
G:--7--------7--------7-----------7-------7---------7-------------7-------7---------------------|
D:--0-------------0-------------------------0------------------0---------------0----------------|
A:----------------------------------------------------------------------------------------------|
E:----------------------------------------------------------------------------------------------|

G__________________C
I could tell that you're angry with me

______G__________C
By the way that you fall asleep

G___________________C_____________________G
It's like your dreaming against me, and your body moves

________________C
to the edge of the lake

G__________________C_________
I could tell when you've had enough

______G________________C
By the way we move in the dark

G_________________C
I could tell that you're tired

____________G___________C
Of trying this hard

D_______________C____________________G
Now go and tell me why I can't get back to you

D___________________C
Go on and tell me why I can't hear you say

G____________________________
Hey everything's going to be alright

C____________________________
Hey everything's going to be alright

G____________________________
Hey everything's going to be alright

D_______________________
Sometimes it's so hard to say

G_________________________
Everything's going to be alright

C____________________________
Hey everything's going to be alright

G____________________________
Hey everything's going to be alright

D___________________C_________________G
It's too hard to say it now, to say it anyhow

G____________________C_________________G
Well we might both be spiteful and sick of our jobs

G______________________________C_______
Yeah we might both think we're the clean ones

______________G
But really we're slobs

________C_________________________D
Well I've noticed these things and they sink into me

_____C__________________________G
As I tripped over things I really should see

______________C
She likes being alone, here we go

G____________________________
Hey everything's going to be alright

C____________________________
Hey everything's going to be alright

G____________________________
Hey everything's going to be alright

D_______________________
Sometimes it's so hard to say

G_________________________
Everything's going to be alright

C_____________________________
Hey everything's going to be alright

G____________________________
Hey everything's going to be alright

D_____________________C_________________G
Breaks your heart to say it now, to say it anyhow
Tap to rate this tab
# A B C D E F G H I J K L M N O P Q R S T U V W X Y Z