Song name
# A B C D E F G H I J K L M N O P Q R S T U V W X Y Z

Seven Mary Three - Anything chords

Highlighted       Show chord diagrams
'ANYTHING'
SEVEN MARY THREE from the album "AMERICAN STANDARD"
Transcribed by  Jason Leonard


Chords:

	Cadd9	 Em	  G	  F
	--3--	--0--	--3--	--1--|
	--3--	--0--	--3--	--1--|
	--0--	--0--	--0--	--2--|
	--2--	--2--	--0--	--3--|
	--3--	--2--	--2--	--3--|
	-----	--0--	--3--	--1--|


Intro: 0:00- 0:23

Rhy. Fig. 1   * Play 2 times *

G                             G
-----3-3-3-3----3-3-3-3-3-3-3|-----3-3-3-3----3-3-3-3-3-3-3|
-----0-0-0-0----0-0-1-1-1-1-1|-----0-0-0-0----0-0-1-1-1-1-1|
-----0-0-0-0----0-0-0-0-0-0-0|-----0-0-0-0----0-0-0-0-0-0-0|
0----0-0-0-0--0-0-0-2-2-2-2-2|0----0-0-0-0--0-0-0-2-2-2-2-2|
2----------------------------|2----------------------------|
3----------------------------|3----------------------------|

Cadd9                        Cadd9
-------3-3-3-3-------3-3-3-3|--------3-3-3-3---------------|
-------3-3-3-3-------3-3-3-3|--------3-3-3-3---------------|
-------0-0-0-0-------0-0-0-0|--------0-0-0-0---------------|
2------2-2-2-2-------2-2-2-2|2-2-----2-2-2-2---------------|
3---------------------------|3-3---------------------------|
----------------------------|------------------------------|


0:24- 1:22
Play Rhy. Fig. 1
G
Indivisible, you are the

Cadd9
one

G
Impossible to hear what you say to me at night

Cadd9
can I have some covers back? It's so cold on the wrong side of the bed

G                                               Cadd9
are you awake, are you aware, are you anything?

         G
pictures high, high above the shelf, letters from me to you, you to me,

Cadd9
us to them, do they express, do they say

G                           Cadd9
anything? anything at all?


Chorus:  1:23- 1:57

Em            Cadd9
I know I'm not the man of her dreams

G
daddy said she'd marry rich, rich, richer than me

    Em              Cadd9               F
I know I'm not her man, but she can take anything,anything she

G                   Cadd9
wants, anything at all


Verse:  1:58- 2:44

Play Rhy. Fig. 1
       G
Do you think it's just enough to know how I wanted you to feel

Cadd9
read things back to me, back up, see from where I am

G                                          Cadd9
there is nothing more than this, more than this

         G
Is it enough to say that I want you to keep it close to me

Cadd9
me, me is all I think about, but every word you

G                       Cadd9
say do I mean anything?


Chorus:  2:45- end

Em            Cadd9
I know I'm not the man of her dreams

G
daddy said she'd marry rich, rich, richer than me

    Em              Cadd9               F
I know I'm not her man, but she can take anything,anything she

G                   Cadd9                   G               
       G
wants, anything at all,     anything she wants, anything at all

(c)1998 Seven Mary Three Music, BMI. All rights reserved.
Administered by EMI Publishing. Lyrics reprinted by permission.
Tap to rate this tab
 
# A B C D E F G H I J K L M N O P Q R S T U V W X Y Z