Song name
# A B C D E F G H I J K L M N O P Q R S T U V W X Y Z

Seven Mary Three - Needle Cant Burn chords

Highlighted       Show chord diagrams
'NEEDLE CAN'T BURN' ( WHAT THE NEEDLE CAN'T FIND )
SEVEN MARY THREE from the album "ROCKCROWN"
Transcribed by  Jason Leonard (krusen@linknet.net)


Chords:
  G   C   E   D

--3---0---3---2---|
--3---3---3---3---|
--0---0---0---2---|
--0---2---2---0---|
--2---3---2-------|
--3-------0-------|

* Use strumming for chords- Use your ear for
timing of the strumming.

* song begins with drum intro *
0:00 - 0:26
G
I don't want to spend the rest of my life
C
starin' at a man,  Looking down a line
E
what's he say? 'Not my style'
C
Just a stylized version of an obsolete file
G
I don't want to spend the rest of my time
C
lookin' for the words I'm never going to find
E
You read them in a book and apply them to your life
C
but how can I be as pretty as she writes?

0:27 - 0:39
D      C
I know I'm all right. Because
E                C             E            D
the needle can't burn what the needle can't find

0:40 - 1:04
G
She don't want to spend the rest of her heart
C
waste it on a job, and never get a start
E
Part of her says she should be herself
C
and part of her says she should be with someone else
G
I don't want to spend the rest of my life
C
looking for a girl I'm never gonna find.
E
Starin' back at me when I come home at night
C
but how can she be as pretty as I write?

1:05 - 1:16
D      C
I know I'm all right. Because
E                C             E            D
the needle can't burn what the needle can't find

1:17 - 1:42
* guitar solo *
G    C    E    C
G    C    E    C

1:43 - end
D                                    C
I don't want to spend the rest of my life
E            C     E              D
starin' at a man,  Looking down a line
D                           C
It will be hard, but I know I'm all right,
E                        C
because the needle can't burn
         E            C
what the needle can't find
        E           C             E
And the money won't save what the money
      C
can't buy
E                 C
And part of me is safe
    E             C     D
And part of me is lies
           G
So be mine tonight.


SOLO

---------------------------------------------|
-----8-10-8---10-8---------------------------|
-7-9--------------9-7-------7-9-7--77-77-9-9-|
-------------------------7-9------9----------|
---------------------------------------------|
---------------------------------------------|

---------------------------------------------|
-8----------8--------------------------------|
--9-7--------9-7-------------7-----7----7--9-|
-----9-7-5-------9-7-5----7-9---7-9--7-9-----|
---------------------------------------------|
---------------------------------------------|

-------------------------------------|
--8-8-8-10------1212----------- <----| let ring
-9-9-9-----99------------------------|
-------------------------------------|
-------------------------------------|
-------------------------------------|

(c)1998 Seven Mary Three Music, BMI. All rights reserved.
Administered by EMI Publishing. Lyrics reprinted by permission.
Tap to rate this tab
# A B C D E F G H I J K L M N O P Q R S T U V W X Y Z