Song name
# A B C D E F G H I J K L M N O P Q R S T U V W X Y Z

Seven Mary Three - People Like New chords

Highlighted       Show chord diagrams
'PEOPLE LIKE NEW'
SEVEN MARY THREE from the album "ROCKCROWN"
Transcribed by  Jason Leonard
Thanks to Robbie Gennet for the chords.


* I am currently working on the solo at the end.  Any Help will be much smiled upon.

CHORDS:

  A        Ab         C       D       F

-----     -----     -----   --2--   --1--|
--1--     --1--     --1--   --3--   --1--|
--2--     --1--     --0--   --2--   --2--|
--2--     --1--     --2--   --0--   --3--|
--0--     -----     --3--   -----   --3--|
-----     -----     -----   -----   --1--|

Note:  The lead of the song is the piano.  The piano begins the song,
         playing by itself.   The bassline plays the same notes the
         chords are named after.

0:00-0:30
A  Ab   C   D

0:31-0:55
A        Ab
Yeah the roads are right tonite
C        D
 they are twisting
A            Ab
 My mouth is dry
C              D      (Guitar Fill #1)
 like cool air inside

0:56- 1:31
F            C
 And maybe I worry
F               C
 do things in a hurry
F               C
 and follow the dust
               A   G
of people like new

                   A   Ab
There's people like me
                      C     (Solo#1 begins) D
and there's people like you

1:32-1:44 (during solo)
A    Ab    C    D

1:45-2:08
A         Ab
 Yeah the roads are right tonite
C         D
 they are turning
A            Ab
 I know that deep inside the pines
C            D        (Guitar Fill 1)
 an answer is lurking

2:09-2:45
F            C
 And maybe I worry
F               C
 do things in a hurry
F               C
 and follow the dust
              A   G
of people like new

                    F
There's people like me

A           G                          F
               and there's people like new

2:46-end
A    G    F   (These 3 chords repeat until the end while solo plays)

************************************************************
Here are the guitar fills & the solos.   Play them where noted.

Guitar Fill #1:

-----------|
-----------|
-----------|
--0-2-3----|
---------3-|
-----------|

Solo 1:

-------------------------------------------------------------|
-------------------------------------------------------------|
-------------------------------------------------------------|
-----------------10-12-12~14-14--14~12-12~10-------10--------|
------10-12-10-12----------------------------10-12-----------|
-10-12-------------------------------------------------------|

--------------------------------------|
--------------------------------------|
--------------------------------------|
--------------------------------------|
------10-------12-10------------------|
-10-12---10-12-------12-10-8~10-------|


(c)1998 Seven Mary Three Music, BMI. All rights reserved.
Administered by EMI Publishing. Lyrics reprinted by permission.
Tap to rate this tab
 
# A B C D E F G H I J K L M N O P Q R S T U V W X Y Z