Song name
# A B C D E F G H I J K L M N O P Q R S T U V W X Y Z

Seven Mary Three - Super-related chords

Highlighted       Show chord diagrams
'Super-Related' by SEVEN MARY THREE
from the album ORANGE AVE.
transcribed by: Jason Leonard


Chords:

  G      A      C      B
--3--  -----  --0--  -----
--3--  --2--  --3--  -----
--0--  --2--  --0--  --4--
--0--  --2--  --2--  --4--
--2--  --0--  --3--  --2--
--3--  -----  -----  -----

Here are the little guitar riffs that are played on each chord.

G-Riff   
-----------------|-------------------|
-----------------|-------------------|
-----------------|-------------------|
-----------------|-------------------|
-----------------|-------------------|
-3-3-3-3-3-2-3-2-|-3-3-3-3-3-3-3-3---|

A-Riff
-------------------|-------------------|
-------------------|-------------------|
-------------------|-------------------|
-------------------|-------------------|
-0-0-0-0-0---0-----|-0-0-0-0-0-0-0-0---|
------------3---3--|-------------------|

C-Riff
------------------|------------------|
------------------|------------------|
------------------|------------------|
-3-3-3-3-3-2-3-2--|-3-3-3-3-3-3-3-3--|
------------------|------------------|



Intro:  0:00- 0:07
G-Riff 2 times


Verse:  0:08- 0:39

G
Super-related and 
             A
I think it's bigger than books when
C
reality steps in, 
                   G 
she's a gun with a gun
G
Super-related and 
      A 
I can feel you pull through me
C
reality surely 
                         G 
leaves the choice in our hands


Chorus:  0:40- 0:55

B                                 C
I could be chemical, I could be a plastic proxy priest
              A                                C  
he's got more ends than means, more wants than needs

0:56- 1:03
G-Riff 2 times


Verse:  1:04- 1:35

G
Super-related and
      A 
I can see one holy roller
              C
keeps looking over his shoulder
                   G 
but there's nobody there
G
Super-related is
       A 
like a cosmic communion
         C
It's the holiest union
                  G 
that could ever exist


Chorus:  1:36- 1:50

B                                       C
What if we're aeroplanes?  I would be a fire in the sky
            A                    C  
It's always do or die or hit the ground


1:51- 2:22
A  C  C  C  B  C  A  C  ( with solo )

2:23- 2:30
Acoustic- Strumming G-chord


Verse:  2:31- 3:01

G
Super-related is
        A 
all the lovers and has-beens
             C
teaching the comers and kingpins
                    G 
how to live with mistakes
(enter drums)
G
Super-related is
       A 
like a cosmic communion
         C
It's the colorless union
                       G 
of all the love in the world


Chorus:  3:02- end

B                                       C
What if we're aeroplanes?  I would be a fire in the sky
            A                        C  
It's always do or die or hit the... 
G
ground


(c)1998 Seven Mary Three Music, BMI. All rights reserved. 
Administered by EMI Publishing. Lyrics reprinted by permission.
Tap to rate this tab
 
# A B C D E F G H I J K L M N O P Q R S T U V W X Y Z