Song name
# A B C D E F G H I J K L M N O P Q R S T U V W X Y Z

Seven Mary Three - Waters Edge tab

Guitar 1
Intro:
E|--------------------------------|
B|--------------------------------|
G|-----------0--------0--------0--|
D|--------9--------4--------7-----|   2X
A|-----9--------2--------5--------|
E|--7-----------------------------|

Guitar 2
Fill 1:
-0-0----------0------(12)--------|-0-0---------0---(12)----------|
-0-0----------0----------(12)----|-0-0---------0-------(12)------|
-1-1---X-X-X--1--------------(12)|-1-1--X-X-X--1-----------(12)--|
-2-2---X-X-X--2------------------|-2-2--X-X-X--2-----------------|
-2-2---X-X-X--2------------------|-2-2--X-X-X--2-----------------|
-0-0---X-X-X--0------------------|-0-0--X-X-X--0-----------------|

Guitar 1:
Verse:
E|--------------------------------|
B|--------------------------------|
G|-----------0--------0--------0--|
D|--------9--------4--------7-----|   2X
A|-----9--------2--------5--------|
E|--7-----------------------------|

Chords
E 2x C 3x D 3x
E 2x C 3x G 3x
E 2x C 3x D 3x
E 2x C 3x G 3x

E|--------------------------------|
B|--------------------------------|
G|-----------0--------0--------0--|
D|--------9--------4--------7-----|   2X
A|-----9--------2--------5--------|
E|--7-----------------------------|

Fill 2 (Same as Fill 1):

-0-0----------0------(12)--------|-0-0---------0---(12)----------|
-0-0----------0----------(12)----|-0-0---------0-------(12)------|
-1-1---X-X-X--1--------------(12)|-1-1--X-X-X--1-----------(12)--|
-2-2---X-X-X--2------------------|-2-2--X-X-X--2-----------------|
-2-2---X-X-X--2------------------|-2-2--X-X-X--2-----------------|
-0-0---X-X-X--0------------------|-0-0--X-X-X--0-----------------|

E|--------------------------------|
B|--------------------------------|
G|-----------0--------0--------0--|
D|--------9--------4--------7-----|   2X
A|-----9--------2--------5--------|
E|--7-----------------------------|

Chords
E 2x C 3x D 3x
E 2x C 3x G 3x
E 2x C 3x D 3x
E 2x C 3x G 3x

E|--------------------------------|
B|--------------------------------|
G|-----------0--------0--------0--|
D|--------9--------4--------7-----|   2X
A|-----9--------2--------5--------|
E|--7-----------------------------|

A5 B5 C5 D5
A5 B5 C5 D5
A5 B5 C5 D5
A5 B5 C5 D5

G5 D5 E5 C5
G5 D5 E5 C5
G5 D5 E5 C5
G5 D5 E5 C5

Comments:  Use moderate distortion for the chords and fills.  On the intro riff use a 
chorus effect.  This should give you the correct tone.
Tap to rate this tab
 
# A B C D E F G H I J K L M N O P Q R S T U V W X Y Z