Song name
# A B C D E F G H I J K L M N O P Q R S T U V W X Y Z

Seven Mary Three - Strangely At Home Here tab

     Strangely at Home Here - Seven Mary Three

Capo on 2nd fret - All chords & tablature relative to the capo

Chords:
Gadd9: 320033
Cadd9: x32033
D: xx0232
Am: x02210
[riff 1]
e:----------------------------------------------------|
B:--3-------------------------------------------------|
G:-----0-----------------------5p4--------------------|
D:----------------7p0---------------5-----------------|
A:----------------------------------------------------|
E:----------------------------------------------------|
[riff 2]
e:-------------------------------------------------------|
B:---0---------------------------------------------------|
G:---2///4vv-----7///5-5///2---0-------------------------|
D:-------------------------------------------------------|
A:-------------------------------------------------------|
E:-------------------------------------------------------|
[riff 3]
e:---------------------------------------------------|
B:---0-----------0-------0------0--------------------|
G:---2///4vv----4\\\2--2p0---0h2vv-------------------|
D:---------------------------------------------------|
A:---------------------------------------------------|
E:---------------------------------------------------|

[riff 1]
Gadd9
A few Orange Whips
[riff 2]
Cadd9 Gadd9 Cadd9
And a phone call to my oldest friend
Gadd9
Itís a good time that never ends
[riff 3]
Cadd9 Gadd9 Cadd9
Just watching change in the furniture again

Gadd9
There's no remember whenís
Cadd9
When the jukebox spins
Gadd9
Sad songs in the summertime

Cadd9 Gadd9
The heat is an overture of need on the inside
Cadd9 Gadd9 Cadd9 Gadd9
Heat is an overture of need on the inside
D Cadd9
I know this is only the half life
Gadd9
And the rest of me is by your side
D
Safely at home dear
Am Cadd9
I know something out thereís killing me
Gadd9
And itís something I go looking for
Cadd9
I feel strangely at home here
Gadd9
I feel strangely at home here
Cadd9
I feel strangely at home here
Gadd9 Cadd9 Gadd9 Cadd9
I feel strangely at home here
The bartenders buyback
is the sweetest thing
It says, ìHello friend
Itís good to see you again and again
And again and again and again"




Somebody here better buy me a beer and a shot
Iíll take a light if itís all that youíve got
I could use a ride home tonight
I could use a ride anywhere
And I know this is only the half life
And the rest of me is by your side
Safely at home dear
I know something out thereís killing me
Itís something I go looking for
I feel strangely at home here
Tap to rate this tab
# A B C D E F G H I J K L M N O P Q R S T U V W X Y Z