Song name
# A B C D E F G H I J K L M N O P Q R S T U V W X Y Z

Seven Mary Three - Dislocated tab

This song rocks! Crank your overdrive and don't answer the phone when the landlord calls!
Ok I tabbed the opening riff 2 ways. I'm pretty sure the first one is closer to what the
band plays, but the second works better acoustically...

Drop D tuning (surprise)

Riff 1

e---------------------|
b---------------------|
g---------5---5---5---|
d-7-7-5-7-5-7-5-7-5-7-|
a-7-7-5-7---7---7---7-|
d-7-7-5-7---7---7---7-|

e----------------------------|
b-----------5--5-5-5---------|
g-7-7-5-7-5-7b-7-7-7r-7-5----|
d-7-7-5-7-5---------------7--|v
a-5-5-3-5-3------------------|
d----------------------------|

*OR*

e------------------------|
b------------------------|
g-2-2---2----2----2----2-|
d-2-2---2----2----2----2-|
a-0-0-5-0-3b-0-3b-0-3b-0-|
d-----5------------------|

e---------------------------|
b-3-3---3---3b-3-3-3r-3-1---|
g-2-2---2---2--2-2-2------2-|
d-0-0---0---0---------------|
a-----3---3-----------------|
d---------------------------|

Verse

A
I had an awful wakeup dream

D
everything was just what it seemed

A
I had a nightmare soaked in light

D
everything was cracked from inside

A
I've seen the way I go in the end

D
I shut my eyes to begin

A
Little black cars stretched out In a line

D
All moving backwards in time
Tap to rate this tab
# A B C D E F G H I J K L M N O P Q R S T U V W X Y Z