Guitaretab - guitar tabs
Song name
# A B C D E F G H I J K L M N O P Q R S T U V W X Y Z

Seven Mary Three - Favorite Dog tab

Favorite Dog
by Seven Mary Three
tabbed by taskmaster51

Thatís my other hand    open and empty
Thatís my other head    open and bleeding
-----------------------------------------0---------0-----|
-----------------------0---------------------------0-----|
-----------0---------------------0-----------------0-----|
2--------------------------------------------------2--2--|
---------------------------------------------------2-----|
---------------------------------------------------------|

Wants one too I guess
Thinks too much I guess
------------------------------------------0--------0-----|
----------------------0----4^----------------------0-----|
----------0------------------------0---------------0-----|
2--------------------------------------------------2--2--|
---------------------------------------------------2-----|
---------------------------------------------------------|
[ Tab from: http://www.guitaretab.com/s/seven-mary-three/84708.html ]
Thatís my other jaw     swollen and shameless
Thatís my other eye     swollen but peering
-------------------------------------------0-----0---0-----|
---------------------0------------------------0------0-----|
----------0-------------------------0----------------0-----|
2----------------------------------------------------2--2--|
-----------------------------------------------------2-----|
-----------------------------------------------------------|

Talks too much I know
Seen  too much I know
-------------------------------------------0--|
---------------------0------------------------|
----------0-------------------------0---------|
2---------------------------------------------|
----------------------------------------------|
----------------------------------------------|




       G          A		    Em		    Em
	And another singer is born	Every sip I take
	And another singer is killed    Every sip I take
       G          A		    Em              Em
	Drain away my words just like they were my flesh and bone
       G          A		    Em		    Em
	And theyíre barking at me	Yeah theyíre working on me
       G          A		    Em
		Just like my favorite dog.

       E		  G	     A			  E
	Geronimo, 			yeah look out below
       E		  G	     A                    E
	I love that rusty water like it was my favorite dog.
Related for Favorite Dog tab