Song name
# A B C D E F G H I J K L M N O P Q R S T U V W X Y Z

Seven Mary Three - What Angry Blue tab

#----------------------------------PLEASE NOTE---------------------------------#
#This file is the author's own work and represents their interpretation of the #
#song. You may only use this file for private study, scholarship, or research. #
#------------------------------------------------------------------------------#

Song: What Angry Blue
Artist: Seven Mary Three
Album: ROCKCROWN
Transcribed by Matthew Crane
Tuning (E A D G B E)

I decided to try and tab this song since there wasn't any tabs for it. This tab is not a 
correct but it sounds pretty close. All it really needs is the rest of the parts for 
lead guitar.

Enjoy!

Q=150
4/4

INTRO
 Gtr I
   Q  E E E E  E E   E E E E  E q   Q   E E E E E E   E  E E E E Q. repeat 6x
|------------------|----------3p0-|-----------------|-----------------|
|---------3p0----3p|-0---3p0------|---------3p0---3p|-0----0----------|
|-------1------1---|---1----------|-------1-----1---|----1---4-x-4----|
|-----2------------|--------------|-----2-----------|--------5-x-5----|
|--2---------------|--------------|-2---------------|--------5-x-5----|
|--0---------------|--------------|-0---------------|--------3-x-3----|


CHORUS
  Q.   Q  E E E   E E E E E Q.     Q.   Q  E E E   E E E E E Q.
|---------------|----------------|---------------|-----------------|
|---------------|----------------|---------------|-----------------|
|-4----4--4-x-x-|-4-x-4-4-4-4----|-6----6--6-x-x-|-6-x-6-6-6-6-----|
|-5----5--5-x-x-|-5-5-5-5-5-5----|-7----7--7-x-x-|-7-7-7-7-7-7-----|
|-5----5--5-x-x-|-5-5-5-5-5-5----|-7----7--7-x-x-|-7-7-7-7-7-7-----|
|-3----3--3-x-x-|-3-3-3-3-3-3----|-5----5--5-x-x-|-5-5-5-5-5-5-----|


  Q  E E E E E E   E E E E E q   Q  E E E E E E   E E E E E Q.
|----------------|---------3p0-|----------------|---------3p0-----|
|--------3p0---3p|-0---3p0-----|--------3p0---3p|-0---3p0---------|
|------1-----1---|---1---------|------1-----1---|---1-------------|
|----2-----------|-------------|----2-----------|-----------------|
|-2--------------|-------------|-2--------------|-----------------|
|-0--------------|-------------|-0--------------|-----------------|


VERSE
   Q  E E E E  E E   E E E E  E q   Q   E E E E E E   E  E E E E Q.
|------------------|----------3p0-|-----------------|-----------------|
|---------3p0----3p|=0---3p0------|---------3p0---3p|=0----0----------|
|-------1------1---|---1----------|-------1-----1---|----1---4-x-4----|
|-----2------------|--------------|-----2-----------|--------5-x-5----|
|--2---------------|--------------|-2---------------|--------5-x-5----|
|--0---------------|--------------|-0---------------|--------3-x-3----|


OUTRO
Outro is just strumming the E Chord.
  E
|-0-|
|-0-|
|-1-|
|-2-|
|-2-|
|-0-|
Tap to rate this tab
# A B C D E F G H I J K L M N O P Q R S T U V W X Y Z