Song name
# A B C D E F G H I J K L M N O P Q R S T U V W X Y Z

Seven Nations - Twelve tab

Artist: I Would Set Myself On Fire For You
Song: Twelve

h hammer on
p pull off
~ bend
/ slide up
\ slide down
() harmonic

Standard tuning


PART ONE

||-5------5-6-8-6-5-------------------5--5-|
||-6-----------------6-5--------------6--5-|
||-7----------------------7-5---------7--7-|
||-7---------------------------7------7--7-|
||-----------------------------------------|
||-----------------------------------------|

|----------------------------------------------||
|-5------5\6/5-----------------------5----6----||
|-5------------5----4-5-7-5-4------------------||
|-7--------------7-------------6---6----7----0-||
|-7--------------------------------------------||
|----------------------------------------------||

(repeat twice, I think)


PART TWO

||----5-------5--5-----5----5-----------------------|
||----6-------6--5-----5----6------6--6-------8-----|
||----7-------7--7-----7----7------9--9\10---10-----|
||----7-------7--5-----5\7--7------7--7-------7-----|
||--------------------------------------------------|
||--------------------------------------------------|

|---------------------------------------||
|--5---5----6--6------3--3----1---------||
|--5---5\7--7--7\2----2--2----2---------||
|----------------------------------0----||
|--3---3----5--5------1--1\0--0---------||
|---------------------------------------||

(play once)


PART THREE

(bass part plays by itself)

||------5-------------3\5-------------------||
||---------7-----2h3\---5--5-----3--2-------||
||--0------------------------------------3--||
||------------------------------------------||

(play twice by itself, then continue to repeat as guitar, etc comes in with these 
you can figure out the strumming pattern by listening to the song.)

||---5--5----------------------||
||---6--5--5--5--------0--1----||
||---7--7--5--5--4--5--1--2----||
||---7--7--7--5--------2--2----||
||---------7--7--2--3----------||
||-----------------------------||

(play these chords three times, then…)


PART FOUR
(distortion and delay pedal)

||--------------------------|-8------7---------------|
||-*--------------6--5--555-|----6-5---6-5--6\8-6-0--|
||---------5h6h7------------|------------------------|
||---5h6h7------------------|------------------------|
||-*------------------------|------------------------|
||--------------------------|------------------------|
 1. “No, we’ll not patiently…”
 2. "Whats sewed in song..."


|--------------------|--------------------------|
|--------------------|---6h8p6--5h6p5-3h5p3--0--|
|--7\9-9-9~~~--0-----|--------------------------|
|--------------------|--------------------------|
|--------------------|--------------------------|
|--------------------|--------------------------|


|------------------------|-----------------------3h5p3---|--5--5--5--5--555-|
|-(12)-------------------|---------3-5-----3-5---------5-|--6--5--3--0------|
|---------(12)---2~~~-0--|----2-4-----4-5----------------|------------------|
|-----(7)----------------|--5----------------------------|------------------|
|------------------------|-------------------------------|------------------|
|------------------------|-------------------------------|------------------|

 1. “No come-hither cooing…”
 2. "But this is ours..."


|--8p5--7p5---------------8p5--7p5-------------|
|------------6--5--555--------------6--5--555--|
|----------------------------------------------|
|----------------------------------------------|
|----------------------------------------------|
|----------------------------------------------|

 1. “We’ll accent our lives…”
 2. "On these words of..."


|--8p5--7p5------------------------------------------||
|------------6--5--555---8p6p5-----------------------||
|-------------------------------7p6p5----------------||
|-------------------------------------7p6p5----------||
|-------------------------------------------7~~~--0--||
|----------------------------------------------------||

***
|--------------------------------||
|------------------------------*-||
|--7----7/9-9----9\5-5----5\4----||
|--------------------------------||
|--5----5/7-7----7\3-3----3\2--*-||
|--------------------------------||

 1. "By our..."

(***repeat ALL of part four, EXCEPT this last measure. Replace the last measure with this...)

|-----------------------------------------|---------------------------------|
|-----------------------------------------|---------------------------------|
|--7----7/9-9----9/10-10---10/12-12/14-14-|-4----4/5-5----5/7-7----7/9-9/10-|
|-----------------------------------------|---------------------------------|
|--5----5/7-7----7/8--8-----8/10-10/12-12-|-2----2/3-3----3/5-5----5/7-7/8--|
|-----------------------------------------|---------------------------------|

 2. "Building bolt by bolt..."

|--------------------------------------------||
|--------------------------------------------||
|--------------------------------------------||
|--3----3/5-5----5/7-7----7/9-9/10--9--------||
|-----------------------------------7--------||
|--1----1/3-3----3/5-5----5/7-7/8------------||


PART FIVE

(Clean)
||------------------------------------|-------------------------------------|
||------------------------------------|-------------------------------------|
||---9-10------7-9-7------7-9-7-------|----9-10------7-9-7------7-9-7-------|
||--------9-10-------9-10-------9-7-0-|---------9-10-------9-10-------9-7-0-|
||-7----------------------------------|--7----------------------------------|
||------------------------------------|-------------------------------------|

 1. (creepy whisper)

|-------------------------------------|-------------------------------------|
|-------------------------------------|-------------------------------------|
|---9-10------7-9-7------7-9-7--------|----9-10------7-9-7------7-9-7-------|
|-7------9-10-------9-10-------9-7-0--|---------9-10-------9-10-------9-7-0-|
|-------------------------------------|--7----------------------------------|
|-------------------------------------|-------------------------------------|

 1. (creepy whisper)

|------------------------------------|-------------------------------------|
|------------------------------------|-------------------------------------|
|---9-10------7-9-7------7-9-7-------|----9-10------7-9-7------7-9-7-------|
|--------9-10-------9-10-------9-7-0-|--7------9-10-------9-10-------9-7-0-|
|-7----------------------------------|-------------------------------------|
|------------------------------------|-------------------------------------|

 1. (creepy whisper)

(Distorted)
|------------------------------------|-------------------------------------|
|------------------------------------|-------------------------------------|
|---9-10------7-9-7------7-9-7-------|----9-10------7-9-7------7-9-7-------|
|--------9-10-------9-10-------9-7-0-|---------9-10-------9-10-------9-7-0-|
|-7----------------------------------|--7----------------------------------|
|------------------------------------|-------------------------------------|

 1. Our hour nears...

|-------------------------------------|-------------------------------------|
|-------------------------------------|-------------------------------------|
|---9-10------7-9-7------7-9-7--------|----9-10------7-9-7------7-9-7-------|
|-7------9-10-------9-10-------9-7-0--|---------9-10-------9-10-------9-7-0-|
|-------------------------------------|--7----------------------------------|
|-------------------------------------|-------------------------------------|

 1. Our hour nears...

|-----------------------------------------------||
|-----------------------------------------------||
|----------99999999-9-9-9-9-9-9-9-9---99999999--||
|-------------------1010101010101010--99999999--||
|-77777777-77777777-7-7-7-7-7-7-7-7---77777777--||
|-----------------------------------------------||

 1. "When thirteen bells ring"

PART SIX

||-------------------------------------|------------------------------------|
||-------------------------------------|------------------------------------|
||-9---------------------------999999--|-9---------------------------999999-|
||-------------------------------------|------------------------------------|
||-7-7h8p7-7---7h8p7-7---7h8p7-777777--|-7-7h8p7-7---7h8p7-7---7h8p7-777777-|
||-------------------------------------|------------------------------------|


|-------------------------------------|-----------------------------------||
|-------------------------------------|-----------------------------------||
|--7---------------------------777777-|-9---------------------------------||
|-------------------------------------|-----------------------------------||
|--5-5h7p5-5---5h7p5-5---5h7p5-555555-|-7---------------------------------||
|-------------------------------------|-----------------------------------||


PART SEVEN

(clean)
||--------------------------------------|-----------------------8p7-----||
||--------------------------------------|-----------------8p7-------8---||
||------------------x-------------------|--7---7-9-7-9-7------9-------9-||
||-x---9-10-9-10-9--9----7--9--7--9--7--|--7---7-7-7-7-7----------------||
||-7---7--7-7--7-7--10---10-10-10-10-10-|--9---9-9-9-9-9----------------||
||-x----------------x-------------------|--x----------------------------||

 1.
 2. "oh yeah..."
 3. "oh yeah..."
 4. "oh yeah..."

(play four times)

PART EIGHT

(just strum these chords really fast... sixteen 16th-notes each, i think. distortion 
in here, too.)

||--7--7--7---7--||
||--8--7--10--7--||
||--9--9--9---9--||
||---------------||
||---------------||
||---------------||

 1. "to the blue..."
 2. "to the tangles..."
 3. "to the horizon..."
 4. "to the ocean..."

(play four times. the end)

-----------------------------------------------------------------
LYRICS


PART FOUR
No, well not patiently serenade and await
the coming of all that is ours for the taking.
No come-hither cooing from our lips escapes;
no soft, whispered wherefore-art-thou poetry.

Well accent our lives!
This trials so desperate and dire.
So hackneyed, held hardly together
by our hoarse screams heard only between
whats sewn in song:

the stitching seems so severely immaterial, im sure.
But this is ours. Produced for our pleasure, not yours.
Not yours!

On these words of our evolving truth
weve patterned our lives, building bolt by bolt,
laying floorboards and walls with our sweat and our blood
and our ten blistered hands to uproot our old plans.
To throw off and leave... To leave, yes, we will leave
this place for a life not contrived by those that came before us.

PART FIVE
Our hour nears, just watch the way the hands circumscribe the face. Then we will fly, we 
flee this thirteenth colony when thirteen bells ring.

PART SEVEN
oh yeah, goddamn

PART EIGHT
This is our plea:
to the blue-suspended cirrus
stirred by arrowheads of sparrows flight,
make room for me.

To the tangles of the forest's
viral vacuoles knotted lives,
make room for me.

To the horizon forever afoot,
the waning western light,
make room for me.

To the oceans open bellies,
black and swelling, starving, rise!
Make room for me!
Tap to rate this tab
 
# A B C D E F G H I J K L M N O P Q R S T U V W X Y Z