Song name
# A B C D E F G H I J K L M N O P Q R S T U V W X Y Z

Seven Ways Out - Open The Door tab

Seven Ways Out - Open The Door
               
Guitar Tuning: EADGBe

Intro

e|------------------------------------------------------              
B|------------------------------------------------------
G|-9-9-9-9-9-9-9-9-9-9-9-9------------------------------
D|-9-9-9-9-9-9-9-9-9-9-9-9-9-9-9-9-9-9-9-9-9-9-9-9------
A|-7-7-7-7-7-7-7-7-7-7-7-7-9-9-9-9-9-9-9-9-9-9-9-9------
E|-------------------------7-7-7-7-7-7-7-7-7-7-7-7------
pm ^ ^   ^ ^   ^ ^   ^ ^   ^ ^   ^ ^   ^ ^   ^ ^  

---------------------------------------------------------------
---------------------------------------------------------------
---------------------------------------------------------------
-11-11-11-11-11-11-11-11-11-11-11-11--9-9-9-9-9-9-9-9-9-9-9-9--
-11-11-11-11-11-11-11-11-11-11-11-11--9-9-9-9-9-9-9-9-9-9-9-9--
-9--9--9--9--9--9--9--9--9--9--9--9---7-7-7-7-7-7-7-7-7-7-7-7--
 ^  ^     ^  ^     ^  ^     ^  ^      ^ ^   ^ ^   ^ ^   ^ ^

Verse (1st time)/(2nd time)

E|---------------|------------------------------------	
B|---------------|------------------------------------ repeat
G|-9-------------|-------9---------------------------- patterns
D|-9--9--11--7---|-----9---------9--------11-------9-- as
A|-7--9--11--7---|-7-7---------9-------11--------9---- necessary
E|----7--9---9---|---------7-7-----9-9-------7-7------	

Pre Chorus

E|---------------------------------------------------------------------
B|---------------------------------------------------------------------
G|---------------------------------------------------------------------
D|---------------------------------------------------------------------
A|-----7-----9-----12-----11-----9-11-----7-----9-----12-----11-----9--
E|-0-0---0-0---0-0----0-0----0-0------7-7---7-7---7-7----7-7----7-7----

-----------------------------------------------------------------------
-----------------------------------------------------------------------
-----------------------------------------------------------------------
-----------------------------------------------------------------------
-----9-11-----7-----9-----12-----11-----9-11-----7-----9-----12-----11- 
-7-7------9-9---9-9---9-9----9-9----9-9------7-7---7-7---7-7----7-7----

----------|
----------|
----------|		
----------|
-----11-9-|
-7-7------|

Chorus

E|-------------------------------------------
B|-----9-----10-----12-----11-----10h11r10---
G|-9-9---9-9----9-9----9-9----9-9------------ repeat 4X
D|------------------------------------------- 
A|-------------------------------------------
E|-------------------------------------------
Tap to rate this tab
# A B C D E F G H I J K L M N O P Q R S T U V W X Y Z