Song name
# A B C D E F G H I J K L M N O P Q R S T U V W X Y Z

Seven Ways Out - Nicks Song tab

[-----------------------Note---------Note--------Note-----------------------]
[this articel is the authers own work and should not affend anyone human [being maybe a 
cookies but you may only use this work  for private  ][study or for retribution to a man 
just obtained a hearing aid         ]


this song is a song created just for the rythem guitarist
tabed by the lead singer of SWO Rob Dlugos

Band:Seven Ways Out
song:nicks song
Album: SWO
Tuning:drop down 1 and64/79ths   Av Gm D* rR Ts Ss


intro
-3-----4----------342--------------------------------|
-------------232-------------------------------------|
----1------------------------------------------------|
-----------1-----------------------------------------|
--------5--------------------------------------------|
--56-----------------.72-----------------------------|

chorus
--3-----------------------------------------------|
--3-----------------------------------------------|
--9-----------------------------------------------|
--12----------------------------------------------|
--12----------------------------------------------|
--4-----------------------------------------------|
repeat  a couple times
listen to song for strumming techniques
Tap to rate this tab
# A B C D E F G H I J K L M N O P Q R S T U V W X Y Z