Seven Wiser - Lies tab

-------------------------------------------------------------------------------
			     LIES by SEVEN WISER
-------------------------------------------------------------------------------
Tabbed by: Unsaidxpl
Email: unsaidxpl@bk.ru

Tuning: Dropped C# Tuning C#G#C#F#A#D#

Intro / Verse:


d#|-------------------------------------------|
A#|-------------------------------------------|
F#|----0-------0-------0---------0------------|
C#|--4---4---4---4---4---4-----4---4----------|   x2 (intro)
G#|--------2-------3-------3h5----------------|   x4 (verse)
C#|2------------------------------------------|

Chorus

d#|----------------------------------------------------------------|
A#|----------------------------------------------------------------|
F#|--------4-4-4-4-5-5-5-5-7-7-7-7---------4-4-4-4-5-5-5-5---------|
C#|2-2-2-2-4-4-4-4-5-5-5-5-7-7-7-7-2-2-2-2-4-4-4-4-5-5-5-5-5-5-4-4-|
G#|2-2-2-2-2-2-2-2-3-3-3-3-5-5-5-5-2-2-2-2-2-2-2-2-3-3-3-3-5-5-4-4-|
C#|2-2-2-2-------------------------2-2-2-2-----------------5-5-4-4-|

d#|----------------------------------------------------------------|
A#|----------------------------------------------------------------|
F#|--------4-4-4-4-5-5-5-5-7-7-7-7---------4-4-xxx-5-5-xxx-7-7-7---|
C#|2-2-2-2-4-4-4-4-5-5-5-5-7-7-7-7-2-2-xxx-4-4-xxx-5-5-xxx-7-7-7---|
G#|2-2-2-2-2-2-2-2-3-3-3-3-5-5-5-5-2-2-xxx-2-2-xxx-3-3-xxx-5-5-5---|
D#|2-2-2-2-------------------------2-2-xxx-------------------------|

Fill / Bridge

   E E E S E S S S E S S E E E S S S S E S S E

d#|---------------------------------------------|
A#|---------------------------------------------|
F#|--------------------------------x-x-5-x-x-7--|
C#|--------------------------------x-x-5-x-x-7--|
G#|5-2-2-2-5-2-2-0-5-2-2-5-2-2-2-2-x-x-3-x-x-5--|
C#|5-2-2-2-5-2-2-0-5-2-2-5-2-2-2-2--------------|
                                                    x2
d#|---------------------------------------------|   
A#|---------------------------------------------|
F#|--------------------------------x-x-5-x-x-7--|
C#|--------------------------------x-x-5-x-x-7--|
G#|5-2-2-2-0-2-2-0-5-2-2-5-2-2-2-2-x-x-3-x-x-5--|
C#|5-2-2-2-0-2-2-0-5-2-2-5-2-2-2-2--------------|

************************************

E - eighth note
S -sixteenth note

| h   hammer-on
| x   Mute note

************************************
Tap to rate this tab
 
# A B C D E F G H I J K L M N O P Q R S T U V W X Y Z