Song name
# A B C D E F G H I J K L M N O P Q R S T U V W X Y Z

Seven Year Kismet - Baptised By Way Of Napalm tab

Artist: Seven Year Kismet

Song: Baptised By The Way of Napalm

Album: Not Without Incident

Email: Brandnew789@hotmail.com

Music by: Luke Sohn, Shannon Wellby, Jack Price, Richard Kane & James Everson

Tabbed By: Seven Year Kismet

Tuning - Drop B

PLEASE NOTE: This TAB is only one guitar as this is now how they play live and is 
from the album tabbing. The band now has one guitarist but use two cabs and heads and pan live 
a pedal giving the affect of 2 guitars.

----------------
Key
TP Tremolo Picking
+ Let Ring
- Palm Mute
h Hammer on
p Pull Off
H Harmonic
\ Slide
----------------

Main Riff
|---------------------------------------------------------------|
|---------------------------------------------------------------|
|---------------------------------------------------------------|
|---------------------------------------------------------------|
|-5-----4-5-------------------5-8-5-----45----------------------|
|---000-----0-0-000-0-000-5-8-------000-----0-0-000-0-000-------|
Pm  ---     - - --- - --- - -       ---     - - --- - ---

Tail 1      Tail 2
|---------|------------------------------------------------------|
|---------|------------------------------------------------------|
|---------|------------------------------------------------------|
|---------|--5h7p5------7h8p7--------8h10p8----------------------|
|-1----4--|--------8-7---------10-8---------12-10----------------|
|---------|------------------------------------------------------|
  TP   TP
				     BREAK
|-------------------------------------|----------------------------|
|-------------------------------------|----------------------------|
|-------------------------------------|----------------------------|
|-------------------------10-8--------|----------------------------|
|-8-10-12-7-12-10-8-10-12------12-10--|----------------------------|
|-------------------------------------|--0000000-------------------|
  Tptp tp tptp tptptptptp tptp tp tp  pm --------------------------|

Lead
|---------------------------------------------------------------|
|---------------------------------------------------------------|
|---------------------------------------------------------------|
|-000-78-0000-9-10-0000-8-9-07-8--0-6-7------------------------|
|---------------------------------------------------------------|
|---------------------------------------------------------------|

		X8				   X2 Chorus
|----------------------------------------|---|----------------------|
|----------------------------------------|---|----------------------|
|----------------------------------------|---|----------------------|
|----------------------------------------|---|----------------------|
|----------------------------------------|---|----------------------|
|-000-7-8-0000-9-10-0000-8-9-0-7-8-0-6-7-|-6-|-000--000--000--------|
Pm---     ----      ----     -     ---------------------------------|

|----------------------------------------------------------------------|
|----------------------------------------------------------------------|
|--7\---5--7-------------------------7\---5--7-------------------------|
|----\---------------------------------\-------------------------------|
|--5--\-3--5-------------------------5--\-3--5-------------------------|
|------------000-000-000-000-000-000-----------000-000-000-000-000-000-|

|------------------------------------------------------------------|
|------------------------------------------------------------------|
|--7\---5--7--------------------------7--6--3-----3---/-6-6-6--7---|
|----\-----------------------------------------------/-------------|
|--5--\-3--5--------------------------5--4--1-000-1-/---4-4-4--5---|
|------------000-000-000-000-000-000-------------------------------|

BACK TO THE MAIN RIFF!!

|------------------------------------------------------------------|
|------------------------------------------------------------------|
|------------------------------------------------------------------|
|----------------7---5---3---2------------------7---5---10----8----|
|--5-----7---8-----8---7---5---3---5----7---8-----8---7----12---10-|
|----0-0---0---0---------------------00---0---0--------------------|

|------------------------------------|---------------------------|
|------------------------------------|---------------------------|
|------------------------------------|---------------------------|
|-10----8----7---5---7---5---3---2---|---BACK TO CHORUS----------|
|----12---10---8---7---8---7---5---3-|---------------------------|
|------------------------------------|---------------------------|

|--------------------------|-------------------------------------|
|--------------------------|-------------------------------------|
|--------------------------|-------------------------------------|
|--------------------------|----------4-1------------------------|
|-------------2--1---------|-2-1-4-2-2-3--4-2-0------------------|
|-2--1--4--1--------4--2---|-2-1-4-2------4-2-0------------------|
Tap to rate this tab
 
# A B C D E F G H I J K L M N O P Q R S T U V W X Y Z