Seven Year Kismet - Soundtrack To Destruction tab

Artist: Seven Year Kismet

Song: Soundtrack To Destruction

Album: Not Without Incident
       
Email: Brandnew789@hotmail.com

Music by: Luke Sohn, Shannon Wellby, Jack Price, Richard Kane & James Everson

Tabbed By: Seven Year Kismet

Tuning - Drop B

INTRO FOR THE ALBUM

----------------
Key
h Hammer on 
p Pull Off
----------------

Clean Guitar 1 (0:01)
|--------------------------------------------------------------------------|
|--------------------------------------------------------------------------|
|--------------------------------------------------------------------------|
|--------------------------------------------------------------------------|
|---8---8---8---8----7---7---7---7----10---10---10---10---10---10---8---8--|
|-0---0---0---0----0---0---0---0----8----8----8----8----8----8----7---7----|

Clean Guitar Harmony
|---------------------------------------------------------------------|
|---------------------------------------------------------------------|
|---------------------------------------------------------------------|
|---7---7---7---7---5---5---5---5----8---8---8---8---8---8----7---7---|
|---------------------------------------------------------------------|
|-0---0---0---0---0---0---0---0----8---8---8---8---8---8----7---7-----|

Lead Guitar                             Lead Guitar Harmony 
|-------------------------|------------------------------------|
|-------------------------|------------------------------------|
|-------------------------|------------------------------------|
|-------------------------|--35h7-5---7p5-7--8-5-3------------|
|--57h8-7--8p78--10-7-5--|------------------------------------|
|-------------------------|------------------------------------|
Tap to rate this tab
 
# A B C D E F G H I J K L M N O P Q R S T U V W X Y Z