Song name
# A B C D E F G H I J K L M N O P Q R S T U V W X Y Z

Seven Year Kismet - Obliteration tab

Artist: Seven Year Kismet

Song: Obliteration

Album: Not Without Incident

Email: Brandnew789@hotmail.com

Music by: Luke Sohn, Shannon Wellby, Jack Price, Richard Kane & James Everson

Tabbed By  Seven Year Kismet

Tuning - Drop B

PLEASE NOTE: This TAB is only one guitar as this is now how they play live and is 
from the album tabbing. The band now has one guitarist but use two cabs and heads and pan live 
a pedal giving the affect of 2 guitars.

----------------
Key
TP Tremolo Picking
- Palm Mute
b bend
----------------

Guitar 1 (0:01)

|----------------------------------------------------------------|
|----------------------------------------------------------------|
|----------------------------------------------------------------|
|----------------------------------------------------------------|
|----------------------------------------------------------------|
|-0-0--000--0--000--0--000--0--000--000--000--0--000--0--000--0--|
Pm- -  ---  -  ---  -  ---  -  ---  ---  ---  -  ---  -  ---  -

|--------------|              |-----------------------|
|--------------|              |-----------------------|
|--------------|              |-----------------------|
|--------------| X4                  |----------------|
|--6543--------|              |---9876----------------|
|--------------|              |-----------------------|
   TPTP  			          TPTP


|----------------------------------------------------------------|
|----------------------------------------------------------------|
|----------------------------------------------------------------|
|----------------------------------------------------------------|  X4
|----5---5---4---4---4---4---1---1---4---4---4-------------------|
|--00--00--00--00--0---0---11--11--44--44--44--------------------|
Pm --  --  --  --  -   -   --  --  --  --  --


|-----------------------------------------------------------------|
|-----------------------------------------------------------------|
|-----------------------------------------------------------------|
|-----------------------------------------------------------------|
|----------------------------------------------------333----------|
|--000--999--888--000--333--444--000--999--888--000------444--000-|
Pm----  ---  ---  ---  ---  ---  ---  ---  ---  ---  --- ---  ---


|-----------------------------------------------------------------|
|-----------------------------------------------------------------|
|-----------------------------------------------------------------|
|-----------------------------------------------------------------|   X4
|----------------------------------------------333-----666--------|
|--999--888--000--333--444--000--999--888--000-----444-----777----|
Pm----  ---  ---  ---  ---  ---  ---  ---  --- --- --- --- ---

|----------------------------------------|------------|---------------|
|----------------------------------------|------------|---------------|
|----------------------------------------|------------|---------------|
|----------------------------------------|------------|---------------| X4
|--444---------111---------444-----------|-444-666-777|-------3-2-----|
|------0-4-3-0-----0-3-4-0-----0-4-3-0---|------------|-0-3-6-----3---|
Pm---- - - - - --- - - - - --- - - - -     --- --- ---


|-----------------------------------------------------------------|
|-----------------------------------------------------------------|
|-----------------------------------------------------------------|
|-----------------------------------------------------------------|   X4
|-000-0-0-0--000--0-0-0--000--0-0-0--------3-2--------------------|
|-000-0-0-0--000--0-0-0--000--0-0-0--0-3-6-----3------------------|
Pm--- - - -  ---  - - -  ---  - - -


|---------------------------------|---------------------------|
|---------------------------------|---------------------------|
|---------------------------------|---------------------------|
|---------------------------------|--3------------------------|
|-1-1-11-1-1-11---1-1-11-1-1-11---|------2--------------------|
|-0-0-00-0-0-00---0-0-00-0-0-00---|---------------------------|
                                    TP   TP

BREAK


|---------------------------------------------------------|
|---------------------------------------------------------|
|-------------------------8b------------------------------|
|---------------------------------------------------------|   X4
|-0--0--0-0---0--0--0-0---6b------------------------------|
|-0--0--0-0---0--0--0-0-----------------------------------|
Tap to rate this tab
 
# A B C D E F G H I J K L M N O P Q R S T U V W X Y Z