Song name
# A B C D E F G H I J K L M N O P Q R S T U V W X Y Z

Sevendust - Hurt tab

----------------------------------------------------------------------------
                             SEVENDUST - HURT
----------------------------------------------------------------------------
tuning: C#, B, F#, C#, G#, C#




Spur 1
       E  E  H        E  E     E  E  E  E  E  E  E  E   4x
C#||------------------------|---------------------------||
B ||---------1--------1-----|--------1-----------1------||
F#||*--------4-----------4--|-----------4-----------4--*||
C#||*-----4-----------------|-----4-----------4--------*||
G#||------------------------|--2-----------4------------||
C#||---6--------------------|---------------------------||


  E  E  H        E  E     E  E  E  E  E  E  E  E     E  E  H        E  E   
-----------------------|--------------------------|-----------------------|
--------1--------1-----|--------1-----------1-----|--------1--------1-----|
--------4-----------4--|-----------4-----------4--|--------4-----------4--|
-----4-----------------|-----4-----------4--------|-----4-----------------|
-----------------------|--2-----------4-----------|-----------------------|
--6--------------------|--------------------------|--6--------------------|


  E  E  E  E  E  E  E  E     E  E  H        E  E     E  E  E  E  E  E  E  E   
--------------------------|-----------------------|-------------------------
--------1-----------1-----|--------1--------1-----|--------1-----------1----
-----------4-----------4--|--------4-----------4--|-----------4-----------4-
-----4-----------4--------|-----4-----------------|-----4-----------4-------
--2-----------4-----------|-----------------------|--2-----------4----------
--------------------------|--6--------------------|-------------------------


  E  E  H        E  E     E  E  E  E  E  E  E  E     E  E  H        E  E   
-----------------------|--------------------------|-----------------------|
--------1--------1-----|--------1-----------1-----|--------1--------1-----|
--------4-----------4--|-----------4-----------4--|--------4-----------4--|
-----4-----------------|-----4-----------4--------|-----4-----------------|
-----------------------|--2-----------4-----------|-----------------------|
--6--------------------|--------------------------|--6--------------------|


  E  E  E  E  E  E  E  E     E  E  H        E  E     E  E  E  E  E  E  E  E   
--------------------------|-----------------------|-------------------------
--------1-----------1-----|--------1--------1-----|--------1-----------1----
-----------4-----------4--|--------4-----------4--|-----------4-----------4-
-----4-----------4--------|-----4-----------------|-----4-----------4-------
--2-----------4-----------|-----------------------|--2-----------4----------
--------------------------|--6--------------------|-------------------------


  E  E  H             Q     Q     Q     Q        Q     Q     Q     Q      
-----------------||----1-----1-----1-----1----|---1-----1-----1-----1----|
--------1--------||----1-----1-----1-----1----|---1-----1-----1-----1----|
--------4--------||*---1-----1-----1-----1----|---1-----1-----1-----1----|
-----4-----------||*--x-----x-----x-----x-----|--x-----x-----x-----x-----|
-----------------||---4-----4-----4-----4-----|--6-----6-----6-----6-----|
--6--------------||---4-----4-----4-----4-----|--6-----6-----6-----6-----|


  Q     Q     Q     Q        Q     Q     Q     Q        
---1-----1-----1-----1----|---1-----1-----1-----1-----||
---1-----1-----1-----1----|---1-----1-----1-----1-----||
---1-----1-----1-----1----|---1-----1-----1-----1----*||
--x-----x-----x-----x-----|--x-----x-----x-----x-----*||
--2-----2-----2-----2-----|--9-----9-----9-----9------||
--2-----2-----2-----2-----|--9-----9-----9-----9------||


  Q     Q     Q     Q        Q     Q     Q     Q      
---1-----1-----1-----1----|---1-----1-----1-----1----|
---1-----1-----1-----1----|---1-----1-----1-----1----|
---1-----1-----1-----1----|---1-----1-----1-----1----|
--x-----x-----x-----x-----|--x-----x-----x-----x-----|
--4-----4-----4-----4-----|--6-----6-----6-----6-----|
--4-----4-----4-----4-----|--6-----6-----6-----6-----|


  Q     Q     Q     Q        Q     Q     Q     Q      
--1-----1-----1-----1----|---1-----1-----1-----1----|
--1-----1-----1-----1----|---1-----1-----1-----1----|
--1-----1-----1-----1----|---1-----1-----1-----1----|
--x-----x-----x-----x-----|--x-----x-----x-----x----|
--2-----2-----2-----2-----|--9-----9-----9-----9----|
--2-----2-----2-----2-----|--9-----9-----9-----9----|


  Q     Q     Q     Q        Q     Q     Q     Q      
--1-----1-----1-----1----|---1-----1-----1-----1----|
--1-----1-----1-----1----|---1-----1-----1-----1----|
--1-----1-----1-----1----|---1-----1-----1-----1----|
--x-----x-----x-----x-----|--x-----x-----x-----x----|
--4-----4-----4-----4-----|--6-----6-----6-----6----|
--4-----4-----4-----4-----|--6-----6-----6-----6----|


  Q     Q     Q     Q         Q      Q      Q      Q      
--1-----1-----1-----1----|----1------1------1------1----|
--1-----1-----1-----1----|----1------1------1------1----|
--1-----1-----1-----1----|----1------1------1------1----|
--x-----x-----x-----x-----|---x------x------x------x----|
--2-----2-----2-----2-----|---2------2------2------2----|
--2-----2-----2-----2-----|---x------x------x------x----|


    E  E  H        E  E     E  E  E  E  E  E  E  E  10x       
|------------------------|---------------------------||-----||
|---------1--------1-----|--------1-----------1------||-----||
|*--------4-----------4--|-----------4-----------4--*||-----||
|*-----4-----------------|-----4-----------4--------*||-----||
|------------------------|--2-----------4------------||-----||
|---6--------------------|---------------------------||-----||

...

Tap to rate this tab
# A B C D E F G H I J K L M N O P Q R S T U V W X Y Z