Guitaretab - guitar tabs
Song name
# A B C D E F G H I J K L M N O P Q R S T U V W X Y Z

Sevendust - Failure tab

Band- Sevendust
Song- Failure
Album- Next

Here's another new one from Sevendust.Great song.Enjoy!

Tuning- Standard Sevendust tuning(B,F#,B,E,G#,C#)

Intro
|-------------------------------------------------------------|
|-------------------------------------------------------------|
|-------------------------------------------------------------|
|---------------------------3---------------------------3h5p3-|
|---------------------0h3h5-----------------------0h3h5-------|
|-0-0-0-3-6-3/--0-0-0---------0-0-0-3-6-3/--0-0-0-------------|
P.M....         .....         .....         .....

Verse(Play Intro)

Pre-Chorus
|----------------------------------|
|----------------------------------|
|----------------------------------|
|----------------------------------|
|-0-0-0-0--0-0-0--0-0-0--0-3-6-3-0-| x2
|-0-0-0-0--0-0-0--0-0-0--0-3-6-3-0-|
P.M......  .....  .....  .

Chorus
|----------------------------------------------|
|------------------------------3-3-3-3---------|
|-10-10-10-10-10---12-12-7-7-7-2-2-2-2-5-5-5-5-|
|-8--8--8--8--8/10-10-10-5-5-5-0-0-0-0-5-5-5-5-|
|-8--8--8--8--8/10-10-10-5-5-5-0-0-0-0-3-3-3-3-|
|-8--8--8--8--8/10-10-10-5-5-5-0-0-0-0-3-3-3-3-|

Play Intro

Play Verse

Pre-Chorus 2
|---------------------------------------------------------------|
|---------------------------------------------------------------|
|---------12-----10-----9-------------12-----10-----7-----------|
|---------------------------------------------------------------|
|-0-0-0-0----0-0----0-0---0-3-6-3-0-0----0-0----0-0---0-3-6-3-0-| x2
|-0-0-0-0----0-0----0-0---0-3-6-3-0-0----0-0----0-0---0-3-6-3-0-|
P.M......    ...    ...   .       ...    ...    ...   .       .

Play Chorus
[ Tab from: http://www.guitaretab.com/s/sevendust/141779.html ]
Bridge-Guitar 1
|------------------------------------------------------|
|------------------------------------------------------|
|------------------------------------------------------|
|------------------------------------------------------|
|------------------------------------------------------|
|-0-0-0--0-0-0--0--0-0-0-0--0-0-0--0-0-0--0--0-6-0-5-8-|
P.M....  .....  .  .......  .....  .....  .  .

|----------------------------------------------------|
|----------------------------------------------------|
|----------------------------------------------8-8-8-|
|----------------------------------------------x-x-x-|
|----------------------------------------------6-6-6-|
|-0-0-0--0-0-0--0--0-0-0-0--0-0-0--0-0-0--0--0-------|
P.M....  .....  .  .......  .....  .....  .  .

Solo-Guitar 2 w/ wah
|----------------------------------------------------|
|-11-11-11-11-11-11-11-11-11-10-10-10-10-10-10-10-10-|---|
|----------------------------------------------------|   |  
|----------------------------------------------------|   |
|----------------------------------------------------|   |
|----------------------------------------------------|   |---Repeat this x2
                                                         |
|-13-13-13-13-13-13-13-13-13-12-12-12-12-12-12-12-12-|   |
|----------------------------------------------------|---|   
|----------------------------------------------------|
|----------------------------------------------------|
|----------------------------------------------------| 
|----------------------------------------------------|

|-14-14-15-15-17-17-19-19-20^-20^-20^-|
|-------------------------------------|
|-------------------------------------|
|-------------------------------------|
|-------------------------------------|
|-------------------------------------|

Behind all this, the other guitar is playing the bridge.

Play Chorus

Play Intro

That's all and look for Never very soon!


Related for Failure tab
Advertisement will be closed in 10 seconds