Song name
# A B C D E F G H I J K L M N O P Q R S T U V W X Y Z

Sevendust - Last Song tab

Help us improve GuitareTab! Take a short survey!
Band- Sevendust
Song- The Last Song
Album- Next
Tuning- Drop B(B,F#,B,E,G#,C#)

Intro/Guitar 1
|-------------------------------------------------------|
|-------------------------------------------------------|
|-----7-----7-5-----7-----7-5-----7-----7-5-------7-5~--|
|---7-----7-------7-----7-------7-----7--------7--------|
|-------------------------------------------------------|
|-0-----0-------0-----0-------0-----0-------0-----------|

Intro/Guitar 2
|----------------------------------------------|
|----------------------------------------------|
|----------------------------------------------|
|----------------------------------------------|
|----------------------------------------------|
|-0-----1~------2-----3~------0-----1~------6~-|

Verse w/wah
|---------------------5-----5---5-|
|-------------------8-----8-------|
|---8-7---8-7---8-7-----7-----7---|
|-7-----7-----7-------------------|
|---------------------------------|
|---------------------------------|

Chorus
|----------------------------------------------|
|----------------------------------------------|
|----------8--14----------8--15----------8--14-|
|-0--0-0-0-x--x--0--0-0-0-x--x--0--0-0-0-x--x--|
|-0--0-0-0-6--12-0--0-0-0-6--13-0--0-0-0-6--12-|
|-0--0-0-0-------0--0-0-0-------0--0-0-0-------|

|-----------------------|
|-----------------------|
|-----------------------|
|-----------------------|
|-0-0-------------------|
|-0-0-5-3-5-2-3-1-0-1-3-|

Play Verse

Fill(Played right before the 2nd Chorus)
|-------|
|-------|
|-------|
|-0--8\-|
|-0--8\-|
|-0--8\-|
P.M.

Play Chorus

Play Intro

Bridge
|-------------------------------------------|
|-------------------------------------------|
|-------------------------------------------|
|-------------------------------------------|
|-0-0-0-8~--0-0-0-0-0-0-0-0--0-0-0-0-0--0-0-|
|-0-0-0-8~--0-0-0-0-0-0-0-0--0-0-0-0-0--0-0-|

Solo w/wah(For solo backing just play the bridge with a slide from the 8th fret at the end)
|--------------------------------------------|
|-10-11~---10-10-11-10-8-8h10p8--------------|
|-------------------------------10-9h10p9----|
|-----------------------------------------10-|  Repeat a few times
|--------------------------------------------|
|--------------------------------------------|

Play Verse

Fill 2(Played before the 3rd Chorus)
|---------|
|---------|
|---------|
|-0-0-0-0-|
|-0-0-0-0-|
|-0-0-0-0-|
P.M......

Play Chorus 1x

Final Chorus Variation
|----------------------------------------------------|
|----------------------------------------------------|
|----------8--14----------8--15----------------8--14-|
|-0--0-0-0-x--x--0--0-0-0-x--x--0-0-0-0--0-0-0-x--x--|
|-0--0-0-0-6--12-0--0-0-0-6--13-0-0-0-0--0-0-0-6--12-|
|-0--0-0-0-------0--0-0-0-------0-0-0-0--0-0-0-------|
P.M.                            .....

|-----------------------|
|-----------------------|
|-----------------------|
|-----------------------|
|-0-0-------------------|
|-0-0-5-3-5-2-3-1-0-1-3-|

|--------------------------------------|
|--------------------------------------|
|--------------------------------------|
|-0--0-0-0------0--0-0-0--8\--0--0-0-0-|
|-0--0-0-0------0--0-0-0--8\--0--0-0-0-|
|-0--0-0-0------0--0-0-0--8\--0--0-0-0-|

|----------------------------------|
|----------------------------------|
|----------------------------------|
|------------------------0-0-0-0-0-|
|-0-0--------------------0-0-0-0-0-|
|-0-0-5-3-5-2-3-1-0-1-3--0-0-0-0-0-|

I don't know if it's perfect, but it should be very close. Enjoy!
Related for Last Song tab