Song name
# A B C D E F G H I J K L M N O P Q R S T U V W X Y Z

Sevendust - Hero tab

Band- Sevendust
Song- Hero
Album- Next
Tuning- Drop B(B,F#,B,E,G#,C#)

This took forever to figure out. There are so many different parts in this song that
it took forever to learn. Anyway, this is the first and best track on the record, Next.
It is probably the heaviest song on the album to next to Pieces. So, here it is, all
comments are welcome, this should be about 99% correct.

Intro
|-----------------|
|-----------------|
|-----------------|
|-----------------|
|-0-0-0-0-0-0-3/6-|
|-0-0-0-0-0-0-3/6-|
P.M..........

|------------------------------------------------------------|
|------------------------------------------------------------|
|-8\7-7-8\7-7-8\7-7-8\7-7-8\7----8\7-7-8\7-7-8\7-7-8\7-7-7\5-|
|-x-x-x-x-x-x-x-x-x-x-x-x-x-x----x-x-x-x-x-x-x-x-x-x-x-x-x-x-|
|-6\5-5-6\5-5-6\5-5-6\5-5-6\5----6\5-5-6\5-5-6\5-5-6\5-5-5\3-|
|------------------------------------------------------------|

|------------------------------------------------------------|
|------------------------------------------------------------|
|-8\7-7-8\7-7-8\7-7-8\7-7-8\7----8\7-7-8\7-7-8\7-7-8\7-7-----|
|-x-x-x-x-x-x-x-x-x-x-x-x-x-x----x-x-x-x-x-x-x-x-x-x-x-x-6-5-|
|-6\5-5-6\5-5-6\5-5-6\5-5-6\5----6\5-5-6\5-5-6\5-5-6\5-5-6-5-|
|--------------------------------------------------------6-5-|

|------------------------------------------------------------|
|------------------------------------------------------------|
|------------------------------------------------------------|
|------------------------------------------------------------|
|-0-0-0-0-0-0-0-0-0-0-0-0-0-0----0-0-0-0-0-0-0-0-0-0-0-0-000-|
|-0-0-0-0-0-0-0-0-0-0-0-0-0-0----0-0-0-0-0-0-0-0-0-0-0-0-000-|
P.M..........................    ...........................

|------------------------------------------------------------|
|------------------------------------------------------------|
|------------------------------------------------------------|
|--------------------------------------------------------6-5-|
|-0-0-0-0-0-0-0-0-0-0-0-0-0-0----0-0-0-0-0-0-0-0-0-0-0-0-6-5-|
|-0-0-0-0-0-0-0-0-0-0-0-0-0-0----0-0-0-0-0-0-0-0-0-0-0-0-6-5-|
P.M..........................    .......................

Verse
|------------------------------------------------------|
|------------------------------------------------------|
|------------------------------------------------------|
|------------------------------------------------------|
|------------------------------------------------------|
|-0-0-0--0-0--0-0--0-0-5-3p0--0-0--0-0--0-0--0-0-3-2p0-|
P.M....  ...  ...  ...        ...  ...  ...  ...

Play the Verse again then play this:

Fill 1
|------------------------------------------------------------|
|------------------------------------------------------------|
|------------------------------------------------------------|
|------------------------------------------------------------|
|-0-0-0-0-0-0-0-0-0-0-0-0-0-0----0-0-0-0-0-0-0-0-0-0-0-0-000-|  x2
|-0-0-0-0-0-0-0-0-0-0-0-0-0-0----0-0-0-0-0-0-0-0-0-0-0-0-000-|
P.M..........................    ...........................

Pre-Chorus-w/wah
|-----10-----10-----------------|
|---8------8----(8)-(8)-(8)-(8)-|
|-7------7----------------------|
|-------------------------------|
|-------------------------------|
|-------------------------------|

Chorus
|----------------------------------------------------|
|----------------------------------------------------|
|----------------------------------------4/5---------|
|--------0-------------------------0-----x-x-3-0-2-3-|-----|
|--------0---------2p0-------------0-----2/3-3-0-2-3-|     |
|-222222-0---0-0-0-2p0-0-0--222222-0---0-----3-0-2-3-|     |
P.M.....     .....     ...  ......     .                   |
                                                           |-Repeat twice
|----------------------------------------------------|     |
|----------------------------------------------------|-----|
|----------------------------------------4/5---------|
|--------0-------------------------0-----x-x-3-0-2-5-|
|--------0---------2p0-------------0-----2/3-3-0-2-5-|
|-222222-0---0-0-0-2p0-0-0--222222-0---0-----3-0-2-5-|
P.M.....     .....     ...  ......     .

Fill 2
|------------------------------------------------------------|
|------------------------------------------------------------|
|-8\7-7-8\7-7-8\7-7-8\7-7-8\7----8\7-7-8\7-7-8\7-7-8\7-7-----|
|-x-x-x-x-x-x-x-x-x-x-x-x-x-x----x-x-x-x-x-x-x-x-x-x-x-x-6-5-|
|-6\5-5-6\5-5-6\5-5-6\5-5-6\5----6\5-5-6\5-5-6\5-5-6\5-5-6-5-|
|--------------------------------------------------------6-5-|

Play Verse 1x

Second Half Verse Variation
|------------------------------------------------|
|------------------------------------------------|
|------------------------------------------------|
|------------------------------------------------|
|------------------------------------------------|
|-0-0-0--000-000-000-5-3p0-000-000-000-000-3-2p0-|
P.M....  ... ... ...       ... ... ... ...

Note: Each triplet should be played along with bass drum. After, play Fill
1 with this at the end:

|-----|
|-----|
|-----|
|-6-5-|
|-6-5-|
|-6-5-|

Pre-Chorus 2-w/wah
|-----10-----10-------|
|---8------8----------|
|-7------7------7/8\7-|
|---------------x-x-x-|
|---------------5/6\5-|
|---------------------|

Play Chorus(Let last chord ring out.)

Bridge-Clean
|-------------------------------|
|-------------------------------|
|-----7-----7-5-----7-----5---5-|
|---7-----7-------7-------------|
|-5-----5-------5-----5-5---5---|
|-------------------------------|

Heavy Bridge/Guitar 1
|-------------------------------------------|
|-------------------------------------------|
|-------------------------------------------|
|-0--2--3--10--8--8-8--0--2--3--10--8-----2-|
|-0--2--3--10--8--8-8--0--2--3--10--8-0-0-2-|
|-0--2--3--10--8--8-8--0--2--3--10--8-0-0-2-|
P.M.                                  ...

Solo Build-Up/Guitar 2 w/wah
|-/10-10-10-10-10-10-10-10^-10^-10^-10\-|
|---------------------------------------|
|---------------------------------------|
|---------------------------------------|
|---------------------------------------|
|---------------------------------------|

Solo/Guitar 2 w/wah
|---------------------------------------------|
|---------------------------------------------|
|-7---9--10--17---15-15-15-15--7---9--10--17~-|
|-x---x--x---x----x--x--x--x---x---x--x---x---|
|-5---7--8---15---13-13-13-13--5---7--8---15~-|
|---------------------------------------------|

Play Verse(End with the alternate ending.)

Play Pre-Chorus 2

Play Chorus

Outro
|----------|
|----------|
|----------|
|--------0-|
|--------0-|
|-222222-0-|
P.M.....

Finally, I'm done. I'm almost done with Desertion too so look for that soon. I'm
also working on the acoustic song,Shadows In Red so I might post that. Enjoy!
Tap to rate this tab
# A B C D E F G H I J K L M N O P Q R S T U V W X Y Z