Song name
# A B C D E F G H I J K L M N O P Q R S T U V W X Y Z

Sevendust - Suffer tab

Sevendust - Suffer (Alpha 2007)

/ -slide down
\ -slide up
. -palm mute
/// -pick slide down
\\\ -pick slide up

so this tab was made by the help of JDD36 (darren davis) for his video cover,
the suffer tab by andrew zara, and andrews beg to differ tab for the tunning.
the tunning is Db,Ab,Db,Gb,Bb,Eb so here it is, Enjoy!


Intro
|----------------------------|
|----------------------------|
|----------------------------|  repeat 4x
|----------------------------|
|-1--------1--------1--------| 
|-1-0--0-0-1-0--0-0-1-0--0-0-|
 

Heavy Intro
|----------------------------------------------|
|----------------------------------------------|x2
|----------------------------------------------|
|----------------------------------------------|
|----------------------------------------------|
|-0h1-0h1-0h3-0--0--0-0--0h1-0h1-0h3-0--0--0-0-|

Verse 1
|------------------------------------|
|------------------------------------|repeat 2x
|------------------------------------|
|------------------------------------|
|-1--------1--------1----------------|
|-1-0--0-0-1-0--0-0-1-0--0-0---0--0-0|
pm                             .  . .

Chorus
|-----------------------------------------|
|-----------------------------------------|
|-0----10----8-8-8-8-8-8-8-8--7-7-7-7-7-7-|
|-0----10----8-8-8-8-8-8-8-8--7-7-7-7-7-7-|
|-0----10----8-8-8-8-8-8-8-8--7-7-7-7-7-7-|
|-0----10----8-8-8-8-8-8-8-8--7-7-7-7-7-7-|

|------------------------------------------------------------------|
|------------------------------------------------------------------|
|-0----10-11---6-6-6-6-6-6-6-6-6-----------------------------------|
|-0----10-11---6-6-6-6-6-6-6-6-6--8-8-8-8-8-8-8--10-10-10-10-10-10-|
|-0----10-11---6-6-6-6-6-6-6-6-6--8-8-8-8-8-8-8--10-10-10-10-10-10-|
|-0----10-11---6-6-6-6-6-6-6-6-6--8-8-8-8-8-8-8--10-10-10-10-10-10-|


Verse 2
|--------|
|--------|
|--------|
|--------|
|--------|
|--\\\---|

|----------------------------------------------|
|----------------------------------------------|
|----------------------------------------------|
|----------------------------------------------|
|----------------------------------------------|
|-0h1-0h1-0h3-0--0--0-0--0h1-0h1-0h3-0--0--0-0-|
pm. . . . . . .  .  . .  . . . . . . .  .  . .

|----------------------------------------------|
|----------------------------------------------|
|----------------------------------------------|
|----------------------------------------------|
|----------------------------------------------|
|-0h1-0h1-0h3-0--0--0-0--0h1-0h1-0h3-0--0--0-0-|

Bridge Pt.1
|------------------------------------------|
|------------------------------------------|
|------------------------------------------|
|------------------------------------------|
|------------------------------------------|
|-0--0---0--0--0-0---0--0--0-0---0--0--0-0-|

Bridge Pt.2
|-----------------------------------------------|
|-----------------------------------------------|
|-----------------------------------------------|
|-----------------------------------------------|\
|-1--------1---------1--------------------------| \
|-1-0--0-0-1--0--0-0-1-0--0-0--10h12-10h12-10/1-|  \
                                                    repeat 2x
|----------------------------------------------|  /
|----------------------------------------------| /
|----------------------------------------------|/
|----------------------------------------------|
|-1--------1--------1--------------------------|
|-1-0--0-0-1-0--0-0-1-0--0-0--0--0-0-----------|
pm                            .  . .

Outro
|----------------------------------------------|
|----------------------------------------------|
|----------------------------------------------|
|----------------------------------------------|\
|-1--------1--------1--------------------------| \
|-1-0--0-0-1-0--0-0-1-0--0-0--0--0-0-----------|  \
pm                            .  . .               \ Repeat 2x
                                                   /
|----------------------------------------------|  /
|----------------------------------------------| /
|----------------------------------------------|/
|----------------------------------------------|
|-1--------1--------1--------------------------|
|-1-0--0-0-1-0--0-0-1-0--0-0--10h12-10h12-10/1-|
Tap to rate this tab
# A B C D E F G H I J K L M N O P Q R S T U V W X Y Z