Song name
# A B C D E F G H I J K L M N O P Q R S T U V W X Y Z

Sevendust - Face To Face tab

Band - Sevendust
Song - Face To Face
Album - Seasons (2003)
Tuning - B,Gb,B,E,Ab,Db

Notes: One of my favorites by 7dust to play and great to play live. Enjoy!

Intro "You can't stop f***ing with my head, stop f***ing with my head."
|-------------------------------------|
|-------------------------------------|
|-------------------------------------|
|-------------------------------------|
|-------------------------------------|
|-0-0--0--0-0-0--0-0-0--0-0--0--0-0-0-|
  . .  .  . . .  . . .  . .  .  . . .

|-----15-----15-----15-----15-----15-----15-----15-----15-|
|-----x------x------x------x------x------x------x------x--|
|-----12-----12-----12-----12-----12-----12-----12-----12-|
|---------------------------------------------------------|
|---------------------------------------------------------|
|-0-0----0-0----0-0----0-0----0-0----0-0----0-0----0-0----|
  . .    . .    . .    . .    . .    . .    . .    . .

Main Guitar Line
|-------------------------------------------------|
|-------------------------------------------------|
|-888888------------------------------------------|
|-xxxxxx------------------------------------------|
|-666666------------------------------------------|
|--------0--0-0--0-0--0--0-0--0-0--0--0-0--0-0--0-|

|-------------------------------------------------|
|-------------------------------------------------|
|-888888------------------------------------------|
|-xxxxxx------------------------------------------|
|-666666------------------------------------------|
|--------0--0-0--0-0--0--0-0--0--0-0-6-6--0-0-6-6-|

Verse - w/palm mute
|-------------------------------------|
|-------------------------------------|
|-------------------------------------|
|-------------------------------------| Repeats
|-------------------------------------|
|-0-0--0--0-0-0--0-0-0--0-0--0--0-0-0-|

Chorus "There's not one thing, that you can say to make it right..."
|---------------------------------------------------------|
|---------------------------------------------------------|
|-777777777777\3-3-3-3-3-3-3-3/5-5-5-5-5-5-5/999999999999-|
|-xxxxxxxxxxxx\3-3-3-3-3-3-3-3/5-5-5-5-5-5-5/xxxxxxxxxxxx-|
|-555555555555\1-1-1-1-1-1-1-1/3-3-3-3-3-3-3/777777777777-|
|---------------------------------------------------------|

|-------------------------------------------------|
|-------------------------------------------------|
|-7-7-7-7-7-7-3-3-3-3-3-3-5-5-5-5-----------------|
|-7-7-7-7-7-7-3-3-3-3-3-3-5-5-5-5-3-3-3-3-1-1-1-1-|
|-5-5-5-5-5-5-1-1-1-1-1-1-3-3-3-3-3-3-3-3-1-1-1-1-|
|---------------------------------3-3-3-3-1-1-1-1-|

Post-Chorus
|-----------------------|
|-----------------------|
|---8---8---8---8-------|
|---x---x---x---x-------|
|---6---6---6---6-------|
|-0---0---0---0---0-0-0-|
  .   .   .   .

Play Main Guitar Line

Play Verse

Play Chorus

Play Post-Chorus

Bridge Part 1 - Nearly the same as the verse
|-------------------------------------|
|-------------------------------------|
|-------------------------------------|
|-0-0---------------------------------|
|-0-0---------------------------------|
|-0-0--0--0-0-0--0-0-0--0-0--0--0-0-0-|
  . .  .  . . .  . . .  . .  .  . . .

Bridge Part 2
|--------------------------------------------------------|
|--------------------------------------------------------|
|--------------------------------------------------------|
|--------------------------------------------------------|
|--------------------------------------------------------|
|-12\-0-0--0--0-0-0--0--0-0-0--0-0-0-0--0-0-6-6--0-0-6-6-|

Play Chorus

Play Post-Chorus x2

End and fade w/ Main Guitar Line

Tap to rate this tab
# A B C D E F G H I J K L M N O P Q R S T U V W X Y Z