Sevendust - Never tab

-----------------------------------------------------------------
Never - Sevendust
-----------------------------------------------------------------
Tabbed by:CamBrown
Email:Llccmm@hotmail.com

Tuning: Drop B

Intro - Guitar 2 (weird efffect) contibnues for 4 bars
e|---------------------------------------------------------------|
B|---------------------------------------------------------------|
G|---------------------------------------------------------------| 
D|-----2-0-2---------2-0-2---------------------------------------|
A|---------------------------------------------------------------|
E|-2-2-------5-5-2-2-------5-5-----------------------------------|

Guuitar 1 (Comes in after bars) Start quietly and gradually build up
e|---------------------------------------------------------------|
B|---------------------------------------------------------------|
G|---------------------------------------------------------------|
D|-2-3-2-0-2-3-2-2-2-2-2-2-2-2-3-2-0-2-3-2-2-2-2-2-2-2-2---------|
A|---------------------------------------------------------------|
E|---------------------------------------------------------------|

Verse
e|---------------------------------------------------------------|
B|---------------------------------------------------------------|
G|---------------------------------------------------------------|
D|-2-3-2-0-2-3-2-2-2-2-2-2-2-2-3-2-0-2-3-2-2-2-2-2-2-2-2---------|
A|---------------------------------------------------------------|
E|---------------------------------------------------------------|

PRE CHORUS
e|---------------------------------------------------------------|
B|---------------------------------------------------------------|
G|---------------------------------------------------------------|
D|---------------------------------------------------------------|
A|---------------------------------------------------------------|
E|-222222222---7777---6666---2222---333333333---00000000---------|

e|---------------------------------------------------------------|
B|---------------------------------------------------------------|
G|---------------------------------------------------------------|
D|---------------------------------------------------------------|
A|---------------------------------------------------------------|
E|-222222222---7777---6666---77---10101010---2222---333333333--5-|

CHORUS
e|---------------------------------------------------------------|
B|---------------------------------------------------------------|
G|---------------------------------------------------------------|
D|---------------------------------------------------------------|
A|-0-7-0--0-0-0-7-0--0-8-0--0-0-0-8-0-0-8-0--5-5-5-5-------------|
E|-0-7-0--0-0-0-7-0--0-8-0--0-0-0-8-0-0-8-0--5-5-5-5-------------|
                                                                    (X2)
e|---------------------------------------------------------------|
B|---------------------------------------------------------------|
G|---------------------------------------------------------------|
D|---------------------------------------------------------------|
A|-0-7-0--0-0-0-7-0--0-8-0--0-0-0-8-0-0-8-0--10-10-10-10---------|
E|-0-7-0--0-0-0-7-0--0-8-0--0-0-0-8-0-0-8-0--10-10-10-10---------|

Guitar 2
e|---------------------------------------------------------------|
B|---------------------------------------------------------------|
G|-14----12--15----12----------11----7--12----14-----------------| (X4)
D|-X-----X---X-----X-----------X-----X--X-----X------------------|
A|-12----10--13----10----------9-----9--10----12-----------------|
E|---------------------------------------------------------------| 

VERSE
e|---------------------------------------------------------------|
B|---------------------------------------------------------------|
G|---------------------------------------------------------------|
D|-2-3-2-0-2-3-2-2-2-2-2-2-2-2-3-2-0-2-3-2-2-2-2-2-2-2-2---------|
A|---------------------------------------------------------------|
E|---------------------------------------------------------------|

PRE CHORUS
e|---------------------------------------------------------------|
B|---------------------------------------------------------------|
G|---------------------------------------------------------------|
D|---------------------------------------------------------------|
A|---------------------------------------------------------------|
E|-222222222---7777---6666---2222---333333333---00000000---------|

e|---------------------------------------------------------------|
B|---------------------------------------------------------------|
G|---------------------------------------------------------------|
D|---------------------------------------------------------------|
A|---------------------------------------------------------------|
E|-222222222---7777---6666---77---10101010---2222---333333333--5-|

CHORUS  
e|---------------------------------------------------------------|
B|---------------------------------------------------------------|
G|---------------------------------------------------------------|
D|---------------------------------------------------------------|
A|-0-7-0--0-0-0-7-0--0-8-0--0-0-0-8-0-0-8-0--5-5-5-5-------------|
E|-0-7-0--0-0-0-7-0--0-8-0--0-0-0-8-0-0-8-0--5-5-5-5-------------|
                                                                    (X2)
e|---------------------------------------------------------------|
B|---------------------------------------------------------------|
G|---------------------------------------------------------------|
D|---------------------------------------------------------------|
A|-0-7-0--0-0-0-7-0--0-8-0--0-0-0-8-0-0-8-0--10-10-10-10---------|
E|-0-7-0--0-0-0-7-0--0-8-0--0-0-0-8-0-0-8-0--10-10-10-10---------|
Let the notes ring on the third and fourth bars of this chorus

Guitar 2
e|---------------------------------------------------------------|
B|---------------------------------------------------------------|
G|-14----12--15----12----------11----7--12----14-----------------| (X4)
D|-X-----X---X-----X-----------X-----X--X-----X------------------|
A|-12----10--13----10----------9-----9--10----12-----------------|
E|---------------------------------------------------------------| 

BRIDGE
e|---------------------------------------------------------------|
B|---------------------------------------------------------------|
G|---------------------------------------------------------------|
D|---------------------------------------------------------------|
A|-2-3-2-0-2-3-2-2-2-2-2-2-2-2-3-2-0-2-3-2-2-2-2-2-2-2-3---------|
E|-2-3-2-0-2-3-2-2-2-2-2-2-2-2-3-2-0-2-3-2-2-2-2-2-2-2-3---------|

SOLO
e|---------------------------------------------------------------|
B|----------3-3--------------------------------------------------|
G|--------------5-4-5-5------------------------------------------| (X2)
D|-7-9-9~\3------------------------------------------------------|
A|---------------------------------------------------------------|
E|---------------------------------------------------------------|

e|---------------------------------------------------------------|
B|---------------------------------------------------------------|
G|---------------------------------------------------------------|
D|-14h15-15^--14h15-14h5-14\10--10/12-12/14--14h15h14--7/9-9/10---|
A|---------------------------------------------------------------|
E|---------------------------------------------------------------|

e|---------------------------------------------------------------|
B|---------------------------------------------------------------|
G|---------------------------------------------------------------|
D|-10/12-12/14h15------------------------------------------------|
A|---------------------------------------------------------------|
E|---------------------------------------------------------------|

e|---------------------------------------------------------------|
B|---------------------------------------------------------------|
G|---------------------------------------------------------------|
D|-14h15-15^--14h15-14h5-14\10--10/12-12/14--14h15h14--3/5-7^----|
A|---------------------------------------------------------------|
E|---------------------------------------------------------------|

CHORUS  
e|---------------------------------------------------------------|
B|---------------------------------------------------------------|
G|---------------------------------------------------------------|
D|---------------------------------------------------------------|
A|-0-7-0--0-0-0-7-0--0-8-0--0-0-0-8-0-0-8-0--5-5-5-5-------------|
E|-0-7-0--0-0-0-7-0--0-8-0--0-0-0-8-0-0-8-0--5-5-5-5-------------|
                                                                    (X4)
e|---------------------------------------------------------------|
B|---------------------------------------------------------------|
G|---------------------------------------------------------------|
D|---------------------------------------------------------------|
A|-0-7-0--0-0-0-7-0--0-8-0--0-0-0-8-0-0-8-0--10-10-10-10---------|
E|-0-7-0--0-0-0-7-0--0-8-0--0-0-0-8-0-0-8-0--10-10-10-10---------|

Guitar 2
e|---------------------------------------------------------------|
B|---------------------------------------------------------------|
G|-14----12--15----12----------11----7--12----14-----------------| (X8)
D|-X-----X---X-----X-----------X-----X--X-----X------------------|
A|-12----10--13----10----------9-----9--10----12-----------------|
E|---------------------------------------------------------------|

Both Guitars
e|---------------------------------------------------------------|
B|---------------------------------------------------------------|
G|---------------------------------------------------------------| 
D|-0-------------------------------------------------------------|
A|-0-------------------------------------------------------------|
E|-0-------------------------------------------------------------|   

| /  slide up
| \  slide down
| h  hammer-on
| p  pull-off
| ~  vibrato
| +  harmonic
| x  Mute note
Tap to rate this tab
 
# A B C D E F G H I J K L M N O P Q R S T U V W X Y Z