Sevendust - Feed tab

Sevendust: Feed (solo only)

Transcribed by: mysticguitar77 (disturbedfreak0520@yahoo.com)

YouTube Username: MysticGuitar77

Tuning: Drop Bb/A# (A#,F,A#,D#,G,C)

Notes: This is the way I play it in my cover. It should be relatively close and it 
should give you an idea how it is really played.

Riff 1 (clean w/ delay & chorus)   "I've replaced you with a vision..."
 C|-----------------------|
 G|-------6---------------|
D#|-7--------5------7-----|
A#|-----------------------|
 F|-----------------------|
A#|-----------------------|

Note: Let all notes ring out.

Solo
 C|--------------------------------------------|
 G|--------------------------------------------|
D#|-/7~----7/9-9h10\-2~----/7~----7/9-9h10\-5~-|
A#|--------------------------------------------|
 F|--------------------------------------------|
A#|--------------------------------------------|

 C|-----------------------------------|
 G|-----------------------------------|
D#|-----------------------------------|
A#|-8--10/-13~----13/15--8--10/-12\\\-|
 F|-----------------------------------|
A#|-----------------------------------|

 C|---------------------------------------------|
 G|---------------------------------------------|
D#|-12-14-12~---12-12/14-12--10-9-10-9----10----|
A#|------------------------------------10----10-|
 F|---------------------------------------------|
A#|---------------------------------------------|

 C|------------------------------------------------------|
 G|-13h15--15/17--17h18-17--15-13-15---------------------|
D#|----------------------------------12-12/14-12\10-10ph-|
A#|------------------------------------------------------|
 F|------------------------------------------------------|
A#|------------------------------------------------------|

 C|-------------------------------------------------------|
 G|-15/17--17/18--18h20-18-17-15-15h17p15-13--13h15p13-11-|
D#|-------------------------------------------------------|
A#|-------------------------------------------------------|
 F|-------------------------------------------------------|
A#|-------------------------------------------------------|

 C|-------------------|
 G|-11h13p11-10-------|
D#|-------------12-10-|
A#|-------------------|
 F|-------------------|
A#|-------------------|

 C|-------------12-12-12-12-------------13-13-13-13-|
 G|-10h11p10h11-------------10h11p10h11-------------|
D#|-------------------------------------------------|
A#|-------------------------------------------------|
 F|-------------------------------------------------|
A#|-------------------------------------------------|

 C|-------------15-15-15-15-15-15-15-15-15\-|
 G|-11h13p11h13-----------------------------|
D#|-----------------------------------------|
A#|-----------------------------------------|
 F|-----------------------------------------|
A#|-----------------------------------------|

 C|-12-12-------12-12-13-13-------13-13-15-15-------|
 G|-------------------------------------------------|
D#|-------10-10-------------10-10-------------10-10-|
A#|-------------------------------------------------|
 F|-------------------------------------------------|
A#|-------------------------------------------------|

 C|-15'--17'--15'--17'--18'--20'--18'--20'--22b24--22b24--22b24~-|
 G|--------------------------------------------------------------|
D#|--------------------------------------------------------------|
A#|--------------------------------------------------------------|
 F|--------------------------------------------------------------|
A#|--------------------------------------------------------------|

Tab key:
h = hammer-on
p = pull-off
/ = slide up
\ = slide down
ph= pinched harmonic
' = tremolo pick
b = full bend

That's it. If it looks confusing (I'm not great at tabbing solos), you can check out my 
YouTube channel for my cover and it should help you out with timing.
Tap to rate this tab
 
# A B C D E F G H I J K L M N O P Q R S T U V W X Y Z