Song name
# A B C D E F G H I J K L M N O P Q R S T U V W X Y Z

Sevendust - Licking Cream tab

Help us improve GuitareTab! Take a short survey!
Band - Sevendust
Song - Licking Cream
Album - Home (1999)

Gtr I (A# F# B E G# C#) - 'Untitled'
Gtr II (A# F# B E G# C#) - 'Untitled'
Gtr III (A# F# B E G# C#) - 'W/ wah-wah'
Gtr IV (A# F# B E G# C#) - 'w/ Phaser'


 Intro
  Moderate Rock Q=114
  N.C.
 4/4
  Gtr I
  E S S +E  E S E. E E   E S S +E  E S E. E E
|----------------------|----------------------|
|----------------------|----------------------|
|-6s7s6-(6)-6s7s6--6-7-|-6s7s6-(6)-6s7s6--7-9-|
|-x---------x------x-x-|-x---------x------x-x-|
|-4s5s4-(4)-4s5s4--4-5-|-4s5s4-(4)-4s5s4--5-7-|
|----------------------|----------------------|
|
| Gtr II
| H           Q    E E   H           Q    E E
|----------------------|----------------------|
|----------------------|----------------------|
|----------------------|----------------------|
|----------------------|----------------------|
|----------------------|----------------------|
|--------------------1-|------------------1-0-|


  E S S +E  E S E. E E   E S S +E  E S E. E E
|----------------------|----------------------|
|----------------------|----------------------|
|-6s7s6-(6)-6s7s6--6-7-|-6s7s6-(6)-6s7s6--4-4-|
|-x---------x------x-x-|-x---------x------x-x-|
|-4s5s4-(4)-4s5s4--4-5-|-4s5s4-(4)-4s5s4--2-2-|
|----------------------|----------------------|
|
| H           Q    E E   H           Q    E E
|----------------------|----------------------|
|----------------------|----------------------|
|----------------------|----------------------|
|----------------------|----------------------|
|----------------------|----------------------|
|--------------------1-|------------------1-0-|


  C#7
  E S S +E  E  S  E. E E   E S S +E  E  S  E. E E
|------------------------|------------------------|
|------------------------|------------------------|
|-6s7s6-(6)-6s=7s=6--6-7-|-6s7s6-(6)-6s=7s=6--7-9-|
|-x---------x--------x-x-|-x---------x--------x-x-|
|-4s5s4-(4)-4s=5s=4--4-5-|-4s5s4-(4)-4s=5s=4--5-7-|
|------------------------|------------------------|
|
| H            Q     E E   H            Q     E E
|------------------------|------------------------|
|------------------------|------------------------|
|------------------------|------------------------|
|------------------------|------------------------|
|------------------------|------------------------|
|----------------------1-|--------------------1-0-|
|
| Gtr III
| E.  S +E  E +S  E. E E   E.  S +E  E +S  E. E E
|------------------------|------------------------|
|-----------0-(0)--------|-----------0-(0)--------|
|-----6-(6)-------6------|-----6-(6)-------6------|
|------------------------|------------------------|
|-4----------------------|-4----------------------|
|--------------------0-0-|--------------------0-0-|


  E S S +E  E  S  E. E E   E S S +E  E  S  E. E E
|------------------------|------------------------|
|------------------------|------------------------|
|-6s7s6-(6)-6s=7s=6--6-7-|-6s7s6-(6)-6s=7s=6--4-4-|
|-x---------x--------x-x-|-x---------x--------x-x-|
|-4s5s4-(4)-4s=5s=4--4-5-|-4s5s4-(4)-4s=5s=4--2-2-|
|------------------------|------------------------|
|
| H            Q     E E   H            Q     E E
|------------------------|------------------------|
|------------------------|------------------------|
|------------------------|------------------------|
|------------------------|------------------------|
|------------------------|------------------------|
|----------------------1-|--------------------1-0-|
|
| E.  S +E  E +S  E. E E   E.  S +E  E +S  E. E E
|------------------------|------------------------|
|-----------0-(0)--------|-----------0-(0)--------|
|-----6-(6)-------6------|-----6-(6)-------6------|
|------------------------|------------------------|
|-4----------------------|-4----------------------|
|--------------------0-0-|--------------------0-0-|


  C#7
  E S S +E  E  S  E. E E   E S S +E  E  S  E. E E
|------------------------|------------------------|
|------------------------|------------------------|
|-6s7s6-(6)-6s=7s=6--6-7-|-6s7s6-(6)-6s=7s=6--7-9-|
|-x---------x--------x-x-|-x---------x--------x-x-|
|-4s5s4-(4)-4s=5s=4--4-5-|-4s5s4-(4)-4s=5s=4--5-7-|
|------------------------|------------------------|
|
| H            Q     E E   H            Q     E E
|------------------------|------------------------|
|------------------------|------------------------|
|------------------------|------------------------|
|------------------------|------------------------|
|------------------------|------------------------|
|----------------------1-|--------------------1-0-|
|
| Gtr IV
| E.  S +E  E +S  E. E E   E.  S +E  E +S  E. E E
|------------------------|------------------------|
|-----------0-(0)----0---|-----------0-(0)----0---|
|-----6-(6)-------6----6-|-----6-(6)-------6----6-|
|------------------------|------------------------|
|-4----------------------|-4----------------------|
|------------------------|------------------------|


  E S S +E  E  S  E. E E   E S S +E  E  S  E. E E
|------------------------|------------------------||
|------------------------|------------------------||
|-6s7s6-(6)-6s=7s=6--6-7-|-6s7s6-(6)-6s=7s=6--4-4-||
|-x---------x--------x-x-|-x---------x--------x-x-||
|-4s5s4-(4)-4s=5s=4--4-5-|-4s5s4-(4)-4s=5s=4--2-2-||
|------------------------|------------------------||
|
| H            Q     E E   H            Q     E E
|------------------------|------------------------||
|------------------------|------------------------||
|------------------------|------------------------||
|------------------------|------------------------||
|------------------------|------------------------||
|----------------------1-|--------------------1-0-||
|
| E.  S +E  E +S  E. E E   E.  S +E  E +S  E. E E
|------------------------|------------------------||
|-----------0-(0)----0---|-----------0-(0)----0---||
|-----6-(6)-------6----6-|-----6-(6)-------6----6-||
|------------------------|------------------------||
|-4----------------------|-4----------------------||
|------------------------|------------------------||


   Verse
    N.C.
    H    Q  E E   H    Q  E E   H    Q  E E
||--------------|-------------|-------------|
||o-------------|-------------|-------------|
||------------6-|---------6-7-|-----------4-|
||------------x-|---------x-x-|-----------x-|
||o-----------4-|---------4-5-|-----------2-|
||--------------|-------------|-------------|
|
|   H    Q  E E   H    Q  E E   H    Q  E E
||--------------|-------------|-------------|
||o-------------|-------------|-------------|
||------------6-|---------6-7-|-----------4-|
||------------x-|---------x-x-|-----------x-|
||o-----------4-|---------4-5-|-----------2-|
||--------------|-------------|-------------|


                C#7
                PM------------------------------------------|
  H    Q  E E   E. S +E  E +S  E. E E   E. S +E  E +S  E. E E
|-------------|-----------------------|-----------------------|
|-------------|----------0-(0)----0---|----------0-(0)----0---|
|---------7-6-|----6-(6)-------6----6-|----6-(6)-------6----6-|
|---------x-x-|-----------------------|-----------------------|
|---------5-4-|-4---------------------|-4---------------------|
|-------------|-----------------------|-----------------------|
|
|               PM----------------|     PM-------------|
| H    Q  E E   E. S +E  E +S  E. E E   E. S +E  E +S  E. E E
|-------------|-----------------------|-----------------------|
|-------------|----------6-(6)--------|----------6-(6)--------|
|---------6-7-|----6-(6)-------6----6-|----6-(6)-------6--6-7-|
|---------x-x-|---------------------x-|-------------------x-x-|
|---------4-5-|---------------------4-|-------------------4-5-|
|-------------|-0-----------------0---|-0---------------------|


                                                  Chorus
                                                   N.C.(B5)
  PM------------------------------------------|
  E. S +E  E +S  E. E E   E. S +E  E +S  E. E E    E. S +E  E +S  E. E E
|-----------------------|-----------------------||-----------------------|
|----------0-(0)----0---|----------0-(0)----0---||-----------------------|
|----6-(6)-------6----6-|----6-(6)-------6----6-||----4-(4)-------4----4-|
|-----------------------|-----------------------||-----------------------|
|-4---------------------|-4---------------------||-2--------2-(2)----2---|
|-----------------------|-----------------------||-----------------------|
|
| PM----------------|     PM----------------|
| E. S +E  E +S  E. E E   E. S +E  E +S  E. Q      E. S +E  E +S  E. E E
|-----------------------|-----------------------||-----------------------|
|----------6-(6)--------|----------6-(6)--------||-----------------------|
|----6-(6)-------6----6-|----6-(6)-------6------||-----------------------|
|---------------------x-|-----------------------||----4-(4)-------4----4-|
|---------------------4-|-----------------------||-2--------2-(2)----2---|
|-0-----------------0---|-0-----------------0---||-----------------------|


  (B5/A)                  (B/D#)                  (Bm/D)
  E. S +E  E +S  E. E E   E. S +E  E +S  E. E E   E. S +E  E +S  E. E E
|-----------------------|-----------------------|-----------------------|
|-----------------------|-----------------------|-----------------------|
|----4-(4)-------4----4-|-----------------------|-----------------------|
|-----------------------|----4-(4)-------4----4-|----4-(4)-------4----4-|
|-0--------0-(0)----0---|-----------------------|-----------------------|
|-----------------------|-2--------2-(2)----2---|-1--------1-(1)----1---|
|
| E. S +E  E +S  E. E E   E. S +E  E +S  E. E E   E. S +E  E +S  E. E E
|-----------------------|-----------------------|-----------------------|
|-----------------------|-----------------------|-----------------------|
|-----------------------|-----------------------|-----------------------|
|----4-(4)-------4----4-|----4-(4)-------4----4-|----4-(4)-------4----4-|
|-0--------0-(0)----0---|-----------------------|-----------------------|
|-----------------------|-2--------2-(2)----2---|-1--------1-(1)----1---|


  E. S +E  E +S  E. E E   E. S +E  E +S  E. E E
|-----------------------|-----------------------|
|-----------------------|-----------------------|
|----4-(4)-------4----4-|----4-(4)-------4----4-|
|-----------------------|-----------------------|
|-2--------2-(2)----2---|-0--------0-(0)----0---|
|-----------------------|-----------------------|
|
| E. S +E  E +S  E. E E   E. S +E  E +S  E. E E
|-----------------------|-----------------------|
|-----------------------|-----------------------|
|-----------------------|-----------------------|
|----4-(4)-------4----4-|----4-(4)-------4----4-|
|-2--------2-(2)----2---|-0--------0-(0)----0---|
|-----------------------|-----------------------|


  E. S +E  E +S  E. E E   E. S +E  E +S  E. E E
|-----------------------|-----------------------||
|-----------------------|-----------------------||
|-----------------------|-----------------------||
|----4-(4)-------4----4-|----4-(4)-------4----4-||
|-----------------------|-----------------------||
|-2--------2-(2)----2---|-1--------1-(1)----1---||
|
| E. S +E  E +S  E. E E   E. S +E  E +S  E. E E
|-----------------------|-----------------------||
|-----------------------|-----------------------||
|-----------------------|-----------------------||
|----4-(4)-------4----4-|----4-(4)-------4----4-||
|-----------------------|-----------------------||
|-2--------2-(2)----2---|-1--------1-(1)----1---||


 Interlude
  1.
  N.C.
  PM------------|         PM------------|
  S S S S E e S S E E E   S S S S E e S S E E E
|-----------------------|-----------------------|
|-----------------------|-----------------------|
|-------------------6-7-|-------------------6-7-|
|-------------------x-x-|-------------------x-x-|
|-------------------4-5-|-------------------4-5-|
|-0-----0---0---0-------|-0-----0---0---0-------|
|
| PM------------|         PM------------|
| S S S S E e S S E E E   S S S S E e S S E E E
|-----------------------|-----------------------|
|-----------------------|-----------------------|
|-------------------6-7-|-------------------6-7-|
|-------------------x-x-|-------------------x-x-|
|-------------------4-5-|-------------------4-5-|
|-0-----0---0---0-------|-0-----0---0---0-------|


  PM------------|         PM------------|
  S S S S E e S S E E E   S S S S E e S S E E E
|-----------------------|------------------------||
|-----------------------|-----------------------o||
|-------------------6-7-|-------------------6-7--||
|-------------------x-x-|-------------------x-x--||
|-------------------4-5-|-------------------4-5-o||
|-0-----0---0---0-------|-0-----0---0---0--------||
|
| PM------------|         PM------------|
| S S S S E e S S E E E   S S S S E e S S E E E
|-----------------------|------------------------||
|-----------------------|-----------------------o||
|-------------------6-7-|-------------------4-4--||
|-------------------x-x-|-------------------x-x--||
|-------------------4-5-|-------------------2-2-o||
|-0-----0---0---0-------|-0-----0---0---0--------||


 Interlude
  2.
  PM-------------------------
  S S S S E E S S E S S S S
|---------------------------|
|---------------------------|
|---------------------------|
|---------------------------|
|---------------------------|
|-0-----0---0---0---0-----0-|
|
| PM-------------------------
| S S S S E E S S E S S S S
|---------------------------|
|---------------------------|
|---------------------------|
|---------------------------|
|---------------------------|
|-0-----0---0---0---0-----0-|


 -----------------|       PM----------------------|
  E E S E S S S S S E E   S S S S E E S S E S S S S
|-----------------------|---------------------------|
|-----------------------|---------------------------|
|---------------------7-|---------------------------|
|---------------------x-|---------------------------|
|---------------------5-|---------------------------|
|---0---0---0-----0-----|-0-----0---0---0---0-----0-|
|
|-------------------|     PM----------------------|
| E E S E S S S S S E E   S S S S E E S S E S S S S
|-----------------------|---------------------------|
|-----------------------|---------------------------|
|---------------------6-|---------------------------|
|---------------------x-|---------------------------|
|---------------------4-|---------------------------|
|---0---0---0-----0-----|-0-----0---0---0---0-----0-|


                          Gtr III
  E e S S E S S S S E S S   E.  S +E  E +S E. E.  S   +E  E +S E. Q     Q
|-------------------------|-------------------------|-----------------------
|-------------------------|-------------------------|-----------------------
|---------------------7-7-|-------------------------|-----------------------
|---------------------x-x-|-------------------------|-----------------------
|---------------------5-5-|-4---4-(4)---------------|-----------------------
|---0---0---0-----0-------|-----------6-(6)6--7---7-|-(7)-3-(3)3--3-----0---
|
|                         Gtr III
| E e S S E S S S S E S S   E S S +E  E  S E. E S S   +E  E  S E. E S S E E
|-------------------------|-------------------------|-----------------------
|-------------------------|-------------------------|-----------------------
|---------------------4-4-|-6s7s6-(6)-6s=7s6--6s7s6-|-(6)-6s=7s6--6s7s6-6-7-
|---------------------x-x-|-x---------x-------x-----|-----x-------x-----x-x-
|---------------------2-2-|-4s5s4-(4)-4s=5s4--4s5s4-|-(4)-4s=5s4--4s5s4-4-5-
|---0---0---0-----0-------|-------------------------|-----------------------


  E.  S +E  E +S E. E.  S   +E  E +S E. Q     Q
|-------------------------|-----------------------||
|-------------------------|-----------------------||
|-------------------------|-----------------------||
|-------------------------|-----------------------||
|-4---4-(4)---------------|-----------------------||
|-----------6-(6)6--7---7-|-(7)-3-(3)3--3-----0---||
|
| E S S +E  E  S E. E S S   +E  E  S E. E S S E E
|-------------------------|-----------------------||
|-------------------------|-----------------------||
|-6s7s6-(6)-6s=7s6--6s7s6-|-(6)-6s=7s6--6s7s6-6-4-||
|-x---------x-------x-----|-----x-------x-----x-x-||
|-4s5s4-(4)-4s=5s4--4s5s4-|-(4)-4s=5s4--4s5s4-4-2-||
|-------------------------|-----------------------||


 Verse
  N.C.
  Gtr I
  H    Q  E E   H    Q  E E   H    Q  E E   H    Q  E E
|-------------|-------------|-------------|---------------|
|-------------|-------------|-------------|---------------|
|-----------6-|---------6-7-|-----------4-|---------7-6---|
|-----------x-|---------x-x-|-----------x-|---------x-x---|
|-----------4-|---------4-5-|-----------2-|---------5-4---|
|-------------|-------------|-------------|---------------|
|
| Gtr II
| H    Q  E E   H    Q  E E   H    Q  E E   H    Q  E E
|-------------|-------------|-------------|---------------|
|-------------|-------------|-------------|---------------|
|-----------6-|---------6-7-|-----------4-|---------6-7---|
|-----------x-|---------x-x-|-----------x-|---------x-x---|
|-----------4-|---------4-5-|-----------2-|---------4-5---|
|-------------|-------------|-------------|---------------|


  (C#7)
  Gtr II
  E. S +E  E +S  E. E   E   E. S +E  E +S  E. E   E
|-------------------------|-------------------------|
|----------0-(0)--------0-|----------0-(0)--------0-|
|----6-(6)-------6--6b7---|----6-(6)-------6--6b7---|
|-------------------------|-------------------------|
|-4-----------------------|-4-----------------------|
|-------------------------|-------------------------|
|
| Gtr I
| PM----------------|       PM-------------|
| E. S +E  E +S  E. E   E   E. S +E  E +S  E. E   E
|-------------------------|-------------------------|
|----------6-(6)----------|----------6-(6)----------|
|----6-(6)-------6------6-|----6-(6)-------6--6---7-|
|-----------------------x-|-------------------x---x-|
|-----------------------4-|-------------------4---5-|
|-0-----------------0-----|-0-----------------------|


  E. S +E  E +S  E. E   E   E. S +E  E +S  E. E   E
|-------------------------|-------------------------||
|----------0-(0)--------0-|----------0-(0)--------0-||
|----6-(6)-------6--6b7---|----6-(6)-------6--6b7---||
|-------------------------|-------------------------||
|-4-----------------------|-4-----------------------||
|-------------------------|-------------------------||
|
| PM----------------|       PM----------------|
| E. S +E  E +S  E. E   E   E. S +E  E +S  E. Q
|-------------------------|-------------------------||
|----------6-(6)----------|----------6-(6)----------||
|----6-(6)-------6------6-|----6-(6)-------6--------||
|-----------------------x-|-------------------------||
|-----------------------4-|-------------------------||
|-0-----------------0-----|-0-----------------0-----||


   Chorus
    N.C.(B5)                (B5/A)
    E. S +E  E +S  E. E E   E. S +E  E +S  E. E E
||------------------------|-----------------------|
||o-----------------------|-----------------------|
||-----4-(4)-------4----4-|----4-(4)-------4----4-|
||------------------------|-----------------------|
||o-2--------2-(2)----2---|-0--------0-(0)----0---|
||------------------------|-----------------------|
|
|   E. S +E  E +S  E. E E   E. S +E  E +S  E. E E
||------------------------|-----------------------|
||o-----------------------|-----------------------|
||------------------------|-----------------------|
||-----4-(4)-------4----4-|----4-(4)-------4----4-|
||o-2--------2-(2)----2---|-0--------0-(0)----0---|
||------------------------|-----------------------|


  (B/D#)                  (Bm/D)
  E. S +E  E +S  E. E E   E. S +E  E +S  E. E E  4x
|-----------------------|------------------------||
|-----------------------|-----------------------o||
|-----------------------|------------------------||
|----4-(4)-------4----4-|----4-(4)-------4----4--||
|-----------------------|-----------------------o||
|-2--------2-(2)----2---|-1--------1-(1)----1----||
|
| E. S +E  E +S  E. E E   E. S +E  E +S  E. E E  4x
|-----------------------|------------------------||
|-----------------------|-----------------------o||
|-----------------------|------------------------||
|----4-(4)-------4----4-|----4-(4)-------4----4--||
|-----------------------|-----------------------o||
|-2--------2-(2)----2---|-1--------1-(1)----1----||


 Outro
  N.C.
  PM------------|         PM------------|
  S S S S E e S S E E E   S S S S E e S S E E E
|-----------------------|-----------------------|
|-----------------------|-----------------------|
|-------------------6-7-|-------------------6-7-|
|-------------------x-x-|-------------------x-x-|
|-------------------4-5-|-------------------4-5-|
|-0-----0---0---0-------|-0-----0---0---0-------|
|
| PM------------|         PM------------|
| S S S S E e S S E E E   S S S S E e S S E E E
|-----------------------|-----------------------|
|-----------------------|-----------------------|
|-------------------6-7-|-------------------6-7-|
|-------------------x-x-|-------------------x-x-|
|-------------------4-5-|-------------------4-5-|
|-0-----0---0---0-------|-0-----0---0---0-------|


  PM------------|         PM------------|
  S S S S E e S S E E E   S S S S E e S S E E E
|-----------------------|-----------------------|
|-----------------------|-----------------------|
|-------------------6-7-|-------------------6-7-|
|-------------------x-x-|-------------------x-x-|
|-------------------4-5-|-------------------4-5-|
|-0-----0---0---0-------|-0-----0---0---0-------|
|
| PM------------|         PM------------|
| S S S S E e S S E E E   S S S S E e S S E E E
|-----------------------|-----------------------|
|-----------------------|-----------------------|
|-------------------6-7-|-------------------4-4-|
|-------------------x-x-|-------------------x-x-|
|-------------------4-5-|-------------------2-2-|
|-0-----0---0---0-------|-0-----0---0---0-------|


  PM--------------|          PM--------------|
  S S S S  E  e S S  E E E   S S S S  E  e S S  E E E
|--------------------------|--------------------------|
|--------------------------|--------------------------|
|----------------------6-7-|----------------------6-7-|
|----------------------x-x-|----------------------x-x-|
|----------------------4-5-|----------------------4-5-|
|-0-----0-----0---0--------|-0-----0-----0---0--------|
|
| E   S S +E  E S E.   E E   E   S S +E  E S E.   E E
|--------------------------|--------------------------|
|--------------------------|--------------------------|
|-6s==7s6-(6)-6s7s6----6-7-|-6s==7s6-(6)-6s7s6----7-9-|
|-x-----------x--------x-x-|-x-----------x--------x-x-|
|-4s==5s4-(4)-4s5s4----4-5-|-4s==5s4-(4)-4s5s4----5-7-|
|--------------------------|--------------------------|


  PM--------------|          PM--------------|
  S S S S  E  e S S  E E E   S S S S  E  e S S  E E E
|--------------------------|--------------------------|
|--------------------------|--------------------------|
|----------------------6-7-|----------------------6-7-|
|----------------------x-x-|----------------------x-x-|
|----------------------4-5-|----------------------4-5-|
|-0-----0-----0---0--------|-0-----0-----0---0--------|
|
| E   S S +E  E S E.   E E   E   S S +E  E S E.   E E
|--------------------------|--------------------------|
|--------------------------|--------------------------|
|-6s==7s6-(6)-6s7s6----6-7-|-6s==7s6-(6)-6s7s6----4-4-|
|-x-----------x--------x-x-|-x-----------x--------x-x-|
|-4s==5s4-(4)-4s5s4----4-5-|-4s==5s4-(4)-4s5s4----2-2-|
|--------------------------|--------------------------|


  (C#7)
  E.  S +E  E +S E. E E   E.  S +E  E +S E. E E
|-----------------------|-----------------------|
|-----------0-(0)-------|-----------0-(0)-------|
|-----6-(6)------6------|-----6-(6)------6------|
|-----------------------|-----------------------|
|-4---------------------|-4---------------------|
|-------------------0-0-|-------------------0-0-|
|
| E S S +E  E  S E. E E   E S S +E  E  S E. E E
|-----------------------|-----------------------|
|-----------------------|-----------------------|
|-6s7s6-(6)-6s=7s6--6-7-|-6s7s6-(6)-6s=7s6--7-9-|
|-x---------x-------x-x-|-x---------x-------x-x-|
|-4s5s4-(4)-4s=5s4--4-5-|-4s5s4-(4)-4s=5s4--5-7-|
|-----------------------|-----------------------|


  E.  S +E  E +S E. E E   E.  S +E  E +S E. E E
|-----------------------|-------------------------*|
|-----------0-(0)-------|-----------0-(0)---0-----*|
|-----6-(6)------6------|-----6-(6)------6----6b7-*|
|-----------------------|-------------------------*|
|-4---------------------|-4-----------------------*|
|-------------------0-0-|-------------------------*|
|
| E S S +E  E  S E. E E   E S S +E  E  S E. E E
|-----------------------|-------------------------*|
|-----------------------|-------------------------*|
|-6s7s6-(6)-6s=7s6--6-7-|-6s7s6-(6)-6s=7s6--4-4---*|
|-x---------x-------x-x-|-x---------x-------x-x---*|
|-4s5s4-(4)-4s=5s4--4-5-|-4s5s4-(4)-4s=5s4--2-2---*|
|-----------------------|-------------------------*|




--------------------------------------------------------------------------------


Duration Legend
---------------
W - whole; H - half; Q - quarter; E - 8th; S - 16th; T - 32nd; X - 64th; a - acciaccatura
+ - note tied to previous; . - note dotted; .. - note double dotted
Uncapitalized letters represent notes that are staccato (1/2 duration)
Irregular groupings are notated above the duration line
Duration letters will always appear directly above the note/fret number it represents the
duration for.  Duration letters with no fret number below them represent rests.  Multi-
bar rests are notated in the form Wxn, where n is the number of bars to rest for.  Low
melody durations appear below the staff

Tablature Legend
----------------
 h   - hammer-on
 p   - pull-off
 b   - bend
 pb  - pre-bend
 r   - bend release (if no number after the r, then release immediately)
 /\  - slide into or out of (from/to "nowhere")
 s   - legato slide
 S   - shift slide
 - natural harmonic
[n]  - artificial harmonic
n(n) - tapped harmonic
 ~   - vibrato
 tr  - trill
 T   - tap
 TP  - trem. picking
 PM  - palm muting
\n/  - tremolo bar dip; n = amount to dip
 \n  - tremolo bar down
 n/  - tremolo bar up
/n\  - tremolo bar inverted dip
 =   - hold bend; also acts as connecting device for hammers/pulls
 <> - volume swell (louder/softer)
 x   - on rhythm slash represents muted slash
 o   - on rhythm slash represents single note slash

Misc Legend
-----------
 |  - bar
||  - double bar
||o - repeat start
o|| - repeat end
*|  - double bar (ending)
 :  - bar (freetime)
 $  - Segno
 &  - Coda
Tempo markers -  = BPM(8/16=s8/s16), where s8 = swing 8ths, s16 = swing 16ths
Related for Licking Cream tab