Guitaretab - guitar tabs
Song name
# A B C D E F G H I J K L M N O P Q R S T U V W X Y Z

Sevendust - Rumble Fish tab

I just figured out the dominant guitar parts to this song. Most of the other parts were 
more buried in the mix (or in unison).
The tuning is 1 1/2 steps from standard tuning (with dropped D).
So it's Low to Hi: B, F#, B, E, G#, C#


Intro:
C#--------------------------------------------------------
G#--------------------------------------------------------
E---------------------------------------------------------
B--------------------------3-1----------------------------
F#--------------------------------------------------------
B---0-0-0---0-0-0---0-0-0--------0--0-0--0-0-0-0-0--3-1-3-
    p.m. - - - - - - - - |       p.m. - - - - - - |

C#---------------------------------------------------------
G#---------------------------------------------------------
E----------------------------------------------------------
B--------------------------3-1-----------------------------
F#---------------------------------------------------------
B---0-0-0---0-0-0---0-0-0-------0--0-0--0-0-0-3-5-0-1--0-1-
    p.m - - - - - - - - -|      p.m.- - - - -|      ^    ^
                                 (^ means bend up 1/2 stp.)

[ Tab from: http://www.guitaretab.com/s/sevendust/26595.html ]
1st Verse:
Low B--0-0-0---0-0-0--0-0-0-----0--0-0---0-0-0-0-0--- 
       p.m. - - - - - - - - - - - - - - - - - - - |
(The fill at the end of 1st verse is same as last fill of intro.)

B Section:
C#-----------------------------------
G#-----------------------------------
E---5--4---(3)-(3)-(3)-(3)-(3)-(3)--- [(3) are harmonics ]
B---3--2-----------------------------
F#--3--2-----------------------------
B---3--2-----------------------------
    "Feel it... Let it go." etc...

C#--------------------------
G#--------------------------
E---------------------------
B---------------------------
F#---3-2---3-2---3-2--------
B----3-2---3-2---3-2--------
   "I know.... what you.... feel."

Chorus:
Low B--0-0--0000--00--0--0000-00------
       "Step down on the... slivering snake."

Low B--0-0--0000--00--0--0000-00-3--2-
       "Rescue yourself..."      ^
                                 ^
                     (Bend up full step)

2nd verse:
Same as 1st verse but add the fills that are in intro 1/2 way
through the verse.

B section:
Same as the other B section.


Intro to Bridge:
C#--------------------
G#--------------------
E------6--5-----------
B---0--4--3-----------
F#--0--4--3-----------
B---0--4--3-----------

Bridge Riff:
Low B--000--000--000--
       "Get up! Get up!"

That's it. These are all the parts of the song. You can figure the complete arrangement. 
it's not that hard.
Related for Rumble Fish tab
Advertisement will be closed in 10 seconds