Song name
# A B C D E F G H I J K L M N O P Q R S T U V W X Y Z

Sevendust - Live Again tab

Help us improve GuitareTab! Take a short survey!
Sevendust
Live Again
Animosity
tabbed by crazytom.hot@wanadoo.fr

Intro/Pre Verse:
-----------------------------------------------------
-----------------------------------------------------
-----------------------------------------------------
---2-2-x-x-x-2-2-x-x-x-x-x-x-2-2-x-x-x-2-2-----------
---2-2-x-x-x-2-2-x-x-x-x-x-x-2-2-x-x-x-2-2---2^0-4---
---2-2-x-x-x-2-2-x-x-x-x-x-x-2-2-x-x-x-2-2-----------

--------------------------------------------------------
--------------------------------------------------------
--------------------------------------------------------
---2-2-x-x-x-2-2-x-x-x-x-x-x-2-2-x-x-x-2-2--------------
---2-2-x-x-x-2-2-x-x-x-x-x-x-2-2-x-x-x-2-2---0^2^0^2----
---2-2-x-x-x-2-2-x-x-x-x-x-x-2-2-x-x-x-2-2--------------

Verse:
------------------------------------------
------------------------------------------
------------------------------------------
---5---2---4---------4---0---------7---
-------------------------------4----------
------------------------------------------

Pré Chorus:
  (x4) (x2) (x2) (x4) (x2) (x2) (x4) (x3)
----3----2----5----3----2----5----0----5---
-------------------------------------------
-------------------------------------------
-------------------------------------4-----
-------------------------------------------
--3----2----5----3----2----5----0----------

Chorus(x2):
-------------------------------------------------
-------------------------------------------------
-----4-4-4-4----7-7-7-7--------------------------
-----4-4-4-4----7-7-7-7-----5-5-5-5----4-4-4-4---           
-----2-2-2-2----5-5-5-5-----5-5-5-5----4-4-4-4---
----------------------------3-3-3-3----2-2-2-2---

Outro :
--------------------------------------------------
--------------------------------------------------
--------------------------------------------------
--------------------------------------------------
-----0---2------2---0------0---2------2---0-------
--------------------------------------------------
Related for Live Again tab