Song name
# A B C D E F G H I J K L M N O P Q R S T U V W X Y Z

Sevendust - Angels Son tab

Band - Sevendust
Song - Angel's Son
Album - Animosity (2001)



Gtr I (C# G# C# F# B C#) - 'Untitled'
Gtr II (C# G# C# F# B C#) - 'Untitled'
Gtr III (C# G# C# F# B C#) - 'Untitled'


 Intro
  Moderately Q=92
  D7/C              F6      G7        Ab
 4/4
  Gtr I
  E E E E E E E E   E E E E E E E E   E E E E E E E E
|-----0-------0---|-----0-------0---|-----0---0---0---|
|-----0-------0---|-----0-------0---|-----0---0---0---|
|---5---5---5---5-|---5---5---5---5-|---5---5---5---5-|
|-----------------|-----------------|-----------------|
|-3-------5-------|-----------------|-----------------|
|-----------------|-3-------5-------|-6---------------|


                    D7                  F6                  D7/C
  E E E E E E E E   E E E E +E  E E E   E E E E +E  E E E   E E E E E E E E
|-----0---0---0---|-----0---------0---|-----0---------0---|-----0---0---0---
|-----0---0---0---|-----0---------0---|-----0---------0---|-----0---0---0---
|---5---5---5---5-|---5---5-(5)-5---5-|---5---5-(5)-5---5-|---5---5---5-----
|-----------------|-------------------|-------------------|-----------------
|-----------------|-------------------|-------------------|-3---------------
|-6---------------|-0-----------------|-3-----------------|---------------6-


  Ab           D7                          D7/F#
   W           E E S S S S +S  S E S E S   E E E S S +S  S E S S S S
|--0---------|---------0-------0---0---0-|-------0-------0---0-----0-|
|--0---------|---------------------------|-0-0-0---------------------|
|--5---------|-----4s5---5-(5)---4---2---|-2-2-2---2-(2)---0---2s3---|
|--0---------|-0-0-----------------------|-0-0-----------------------|
|------------|-0-0-----------------------|---------------------------|
|-(6)--------|-0-0-----------------------|-4-4-----------------------|


  Gm                          D7/F#
  E E E S S +S  S S S S E S   E E E S S +S  S E S E S
|-------0-------0-----0---0-|-------0-------0---0---0-|
|-----0---------------------|-0-0-0-------------------|
|-3-3-3---3-(3)---3s5---3---|-2-2-2---2-(2)---0-------|
|-0-0-----------------------|-0-0-----------------4---|
|---------------------------|-------------------------|
|-5-5-----------------------|-4-4---------------------|


  D7
  Gtrs I, II
  E E S S S S +S  S E S E S
|---------0-------0---0---0--|
|----------------------------|
|-----4s5---5-(5)---4---2----|
|-0-0------------------------|
|-0-0------------------------|
|-0-0------------------------|


  D7/F#
  E E E S S +S  S E S S S S
|-------0-------0---0-----0-|
|-0-0-0---------------------|
|-2-2-2---2-(2)---0---2s3---|
|-0-0-----------------------|
|---------------------------|
|-4-4-----------------------|


  Gm                          D7/F#
  E E E S S +S  S S S S E S   E E E S S +S  S E S E S
|-------0-------0-----0---0-|-------0-------0---0---0--||
|-----0---------------------|-0-0-0--------------------||
|-3-3-3---3-(3)---3s5---3---|-2-2-2---2-(2)---0--------||
|-0-0-----------------------|-0-0-----------------4----||
|---------------------------|--------------------------||
|-5-5-----------------------|-4-4----------------------||


   Verse
    D7
    E E S S S S +S  S E S E S
||----------0-------0---0---0-|
||o---------------------------|
||------4s5---5-(5)---4---2---|
||--0-0-----------------------|
||o-0-0-----------------------|
||--0-0-----------------------|


  D7/F#                       Gm
  E E E S S +S  S E S S S S   E E E S S +S  S S S S E S
|-------0-------0---0-----0-|-------0-------0-----0---0---|
|-0-0-0---------------------|-----0-----------------------|
|-2-2-2---2-(2)---0---2s3---|-3-3-3---3-(3)---3s5---3-----|
|-0-0-----------------------|-0-0-------------------------|
|---------------------------|-----------------------------|
|-4-4-----------------------|-5-5-------------------------|


  D7/F#                     D7
  E E E S S +S  S E S E S   E E S S S S +S  S E S E S
|-------0-------0---0---0-|---------0-------0---0---0-|
|-0-0-0-------------------|---------------------------|
|-2-2-2---2-(2)---0-------|-----4s5---5-(5)---4---2---|
|-0-0-----------------4---|-0-0-----------------------|
|-------------------------|-0-0-----------------------|
|-4-4---------------------|-0-0-----------------------|


  D7/F#
  E E E S S +S  S E S S S S
|-------0-------0---0-----0--|
|-0-0-0----------------------|
|-2-2-2---2-(2)---0---2s3----|
|-0-0------------------------|
|----------------------------|
|-4-4------------------------|


  Gm
  E E E S S +S  S S S S E S
|-------0-------0-----0---0-|
|-----0---------------------|
|-3-3-3---3-(3)---3s5---3---|
|-0-0-----------------------|
|---------------------------|
|-5-5-----------------------|


                            Pre-Chorus
  D7/F#                      D7/C
  E E E S S +S  S E S E S    E. S +S  S E +S  E S E S S
|-------0-------0---0---0-||-0--0-(0)-0-0-(0)-0-0-0-0-x-|
|-0-0-0-------------------||-0--0-(0)-0-0-(0)-0-0-0-0-x-|
|-2-2-2---2-(2)---0-------||-5--5-(5)-5-5-(5)-5-5-5-5-x-|
|-0-0-----------------4---||-0--0-(0)-0-0-(0)-0-0-0-0-x-|
|-------------------------||-3--3-(3)-3-3-(3)-3-3-3-3-x-|
|-4-4---------------------||----------------------------|


  D7
  E. S +S  S E +S  E S E S S
|-0--0-(0)-0-0-(0)-0-0-0-0-x-|
|-0--0-(0)-0-0-(0)-0-0-0-0-x-|
|-7--7-(7)-7-7-(7)-7-7-7-7-x-|
|-0--0-(0)-0-0-(0)-0-0-0-0-x-|
|-5--5-(5)-5-5-(5)-5-5-5-5-x-|
|----------------------------|


  D7/F#                                  Gmadd4
   E.  S  +S   S  E  +S   E  S  E  S S   E. S +S  S E +S  E S E S S
|--0---0--(0)--0--0--(0)--0--0--0--0-x-|-5--5-(5)-5-5-(5)-5-5-5-5-x--|
|--0---0--(0)--0--0--(0)--0--0--0--0-x-|-0--0-(0)-0-0-(0)-0-0-0-0-x--|
|-11--11-(11)-11-11-(11)-11-11-11-11-x-|-3--3-(3)-3-3-(3)-3-3-3-3-x--|
|--0---0--(0)--0--0--(0)--0--0--0--0-x-|-0--0-(0)-0-0-(0)-0-0-0-0-x--|
|--9---9--(9)--9--9--(9)--9--9--9--9-x-|-----------------------------|
|--------------------------------------|-5--5-(5)-5-5-(5)-5-5-5-5-x--|


  D7/C                         D7
  E. S +S  S E +S  E S E S S   E. S +S  S E +S  E S E S S
|-0--0-(0)-0-0-(0)-0-0-0-0-x-|-0--0-(0)-0-0-(0)-0-0-0-0-x-|
|-0--0-(0)-0-0-(0)-0-0-0-0-x-|-0--0-(0)-0-0-(0)-0-0-0-0-x-|
|-5--5-(5)-5-5-(5)-5-5-5-5-x-|-7--7-(7)-7-7-(7)-7-7-7-7-x-|
|-0--0-(0)-0-0-(0)-0-0-0-0-x-|-0--0-(0)-0-0-(0)-0-0-0-0-x-|
|-3--3-(3)-3-3-(3)-3-3-3-3-x-|-5--5-(5)-5-5-(5)-5-5-5-5-x-|
|----------------------------|----------------------------|


  D7/F#
   E.  S  +S   S  E  +S   E  S  E  S S
|--0---0--(0)--0--0--(0)--0--0--0--0-x--|
|--0---0--(0)--0--0--(0)--0--0--0--0-x--|
|-11--11-(11)-11-11-(11)-11-11-11-11-x--|
|--0---0--(0)--0--0--(0)--0--0--0--0-x--|
|--9---9--(9)--9--9--(9)--9--9--9--9-x--|
|---------------------------------------|


  Gmadd4
  E. S +S  S E +S  E S E S S   E. S +S  S E +S  E S e E
|-5--5-(5)-5-5-(5)-5-5-5-5-x-|-5--5-(5)-5-5-(5)-5-5-5---||
|-0--0-(0)-0-0-(0)-0-0-0-0-x-|-0--0-(0)-0-0-(0)-0-0-0---||
|-3--3-(3)-3-3-(3)-3-3-3-3-x-|-3--3-(3)-3-3-(3)-3-3-3---||
|-0--0-(0)-0-0-(0)-0-0-0-0-x-|-0--0-(0)-0-0-(0)-0-0-0---||
|----------------------------|--------------------------||
|-5--5-(5)-5-5-(5)-5-5-5-5-x-|-5--5-(5)-5-5-(5)-5-5-5---||
|
| Gtr III
| W                            W
|----------------------------|--------------------------||
|----------------------------|--------------------------||
|----------------------------|--------------------------||
|----------------------------|--------------------------||
|----------------------------|--------------------------||
|----------------------------|--------------------------||


 Chorus
  D7/F#
  Gtrs I, II
   E.  S  +S   S  E  +S   E  S  S  E.
|--0---0--(0)--0--0--(0)--0--0--0--0--|
|--0---0--(0)--0--0--(0)--0--0--0--0--|
|-11--11-(11)-11-11-(11)-11-11-11-11--|
|--0---0--(0)--0--0--(0)--0--0--0--0--|
|--9---9--(9)--9--9--(9)--9--9--9--9--|
|-------------------------------------|
|
|  E.  S  +S   S  E  +S   E  S  Q
|-------------------------------------|
|-------------------------------------|
|-------------------------------------|
|--0---0--(0)--0--0--(0)--0--0--0-----|
|--0---0--(0)--0--0--(0)--0--0--0-----|
|--0---0--(0)--0--0--(0)--0--0--0-----|


                 D7sus2        D7(type 2Bbadd9
   E.  S  +S   S  E  +S   E  S  S  E.    E.  S  +S   S  E  +S   E  S  S  E.
|--0---0--(0)--0--0--(0)--0--0--0--0--|--0---0--(0)--0--0--(0)--0--0--0--0--
|--0---0--(0)--0--0--(0)--0--0--0--0--|--0---0--(0)--0--0--(0)--0--0--0--0--
|-11--11-(11)-11-12-(12)-12-12-14-14--|-10--10-(10)-10-10-(10)-10-10-10-10--
|--0---0--(0)--0--0--(0)--0--0--0--0--|--8---8--(8)--8--8--(8)--8--8--8--8--
|--9---9--(9)--9-10-(10)-10-10-12-12--|--8---8--(8)--8--8--(8)--8--8--8--8--
|-------------------------------------|--8---8--(8)--8--8--(8)--8--8--8--8--|
|
|  E.  S  +S   S  E  +S   E  S  Q        E.  S  +S   S  E  +S   E  S  Q
|-------------------------------------|-------------------------------------
|-------------------------------------|-------------------------------------
|-------------------------------------|-------------------------------------
|--0---0--(0)--0--0--(0)--0--0--0-----|--8---8--(8)--8--8--(8)--8--8--8-----
|--0---0--(0)--0--0--(0)--0--0--0-----|--8---8--(8)--8--8--(8)--8--8--8-----
|--0---0--(0)--0--0--(0)--0--0--0-----|--8---8--(8)--8--8--(8)--8--8--8-----|


   E.  S  +S   S  E  +S   E  S  S  E.
|--0---0--(0)--0--0--(0)--0--0--0--0---|
|--0---0--(0)--0--0--(0)--0--0--0--0---|
|-10--10-(10)-10-10-(10)-10-10-10-10---|
|--8---8--(8)--8--8--(8)--8--8--8--8---|
|--8---8--(8)--8--8--(8)--8--8--8--8---|
|--8---8--(8)--8--8--(8)--8--8--8--8---|
|
|  E.  S  +S   S  E  +S   E  S  Q
|--------------------------------------|
|--------------------------------------|
|--------------------------------------|
|--8---8--(8)--8--8--(8)--8--8--8------|
|--8---8--(8)--8--8--(8)--8--8--8------|
|--8---8--(8)--8--8--(8)--8--8--8------|


  D7/F#                       Gmadd4
  E. S +S  S E +S  E S S E.   E. S +S  S E +S  E S S E.
|-0--0-(0)-0-0-(0)-0-0-0-0--|-5--5-(5)-5-5-(5)-5-5-5-5--|
|-0--0-(0)-0-0-(0)-0-0-0-0--|-0--0-(0)-0-0-(0)-0-0-0-0--|
|-2--2-(2)-2-2-(2)-2-2-2-2--|-3--3-(3)-3-3-(3)-3-3-3-3--|
|-0--0-(0)-0-0-(0)-0-0-0-0--|-0--0-(0)-0-0-(0)-0-0-0-0--|
|---------------------------|---------------------------|
|-4--4-(4)-4-4-(4)-4-4-4-4--|-5--5-(5)-5-5-(5)-5-5-5-5--|
|
| E. S +S  S E +S  E S Q      E. S +S  S E +S  E S Q
|---------------------------|---------------------------|
|---------------------------|---------------------------|
|---------------------------|---------------------------|
|-0--0-(0)-0-0-(0)-0-0-0----|-5--5-(5)-5-5-(5)-5-5-5----|
|-0--0-(0)-0-0-(0)-0-0-0----|-5--5-(5)-5-5-(5)-5-5-5----|
|-4--4-(4)-4-4-(4)-4-4-4----|-5--5-(5)-5-5-(5)-5-5-5----|


  D7/F#
  E. S +S  S E +S  E S S E.
|-0--0-(0)-0-0-(0)-0-0-0-0---|
|-0--0-(0)-0-0-(0)-0-0-0-0---|
|-2--2-(2)-2-2-(2)-2-2-2-2---|
|-0--0-(0)-0-0-(0)-0-0-0-0---|
|----------------------------|
|-4--4-(4)-4-4-(4)-4-4-4-4---|
|
| E. S +S  S E +S  E S Q
|----------------------------|
|----------------------------|
|----------------------------|
|-0--0-(0)-0-0-(0)-0-0-0-----|
|-0--0-(0)-0-0-(0)-0-0-0-----|
|-4--4-(4)-4-4-(4)-4-4-4-----|


  1.
  Gmadd4                      D7
  E. S +S  S E +S  E S S E.   E E S S S S +S  S E S E S
|-5--5-(5)-5-5-(5)-5-5-5-5--|---------0-------0---0---0-|
|-0--0-(0)-0-0-(0)-0-0-0-0--|---------------------------|
|-3--3-(3)-3-3-(3)-3-3-3-3--|-----4s5---5-(5)---4---2---|
|-0--0-(0)-0-0-(0)-0-0-0-0--|-0-0-----------------------|
|---------------------------|-0-0-----------------------|
|-5--5-(5)-5-5-(5)-5-5-5-5--|-0-0-----------------------|
|
| W                           Q   S S S S +S  S E S E S
|---------------------------|---------0-------0---0---0-|
|---------------------------|---------------------------|
|---------------------------|-----4s5---5-(5)---4---2---|
|---------------------------|---------------------------|
|---------------------------|---------------------------|
|---------------------------|---------------------------|


  D7/F#
  E E E S S +S  S E S S    S  S
|-------0-------0---0---------0-|
|-0-0-0-------------------------|
|-2-2-2---2-(2)---0---2s===3----|
|-0-0---------------------------|
|-------------------------------|
|-4-4---------------------------|
|
| Q   E S S +S  S E S S   +E
|-------0-------0---0-----------|
|-------------------------------|
|-----2---2-(2)---0---2b3-(2)---|
|-------------------------------|
|-------------------------------|
|-------------------------------|


  Gm                          D7/F#
  E E E S S +S  S S S S E S   E E E S S +S  S E S E S
|-------0-------0-----0---0-|-------0-------0---0---0-|
|-----0---------------------|-0-0-0-------------------|
|-3-3-3---3-(3)---3s5---3---|-2-2-2---2-(2)---0-------|
|-0-0-----------------------|-0-0-----------------4---|
|---------------------------|-------------------------|
|-5-5-----------------------|-4-4---------------------|
|
| q   E S S +S  S S S S E S   q   E S S +S  S E S E S
|-------0-------0-----0---0-|-------0-------0---0---0-|
|---------------------------|-------------------------|
|-----3---3-(3)---3s5---3---|-----2---2-(2)---0-------|
|---------------------------|---------------------4---|
|---------------------------|-------------------------|
|---------------------------|-------------------------|


  D7
  E E S S S S +S  S E S E S
|---------0-------0---0---0--|
|----------------------------|
|-----4s5---5-(5)---4---2----|
|-0-0------------------------|
|-0-0------------------------|
|-0-0------------------------|
|
| W
|----------------------------|
|----------------------------|
|----------------------------|
|----------------------------|
|----------------------------|
|----------------------------|


  D7/F#                       Gm
  E E E S S +S  S E S S S S   E E E S S +S  S S S S E S
|-------0-------0---0-----0-|-------0-------0-----0---0-|
|-0-0-0---------------------|-----0---------------------|
|-2-2-2---2-(2)---0---2s3---|-3-3-3---3-(3)---3s5---3---|
|-0-0-----------------------|-0-0-----------------------|
|---------------------------|---------------------------|
|-4-4-----------------------|-5-5-----------------------|


  D7/F#
  E E E S S +S  S E S E S
|-------0-------0---0---0---||
|-0-0-0--------------------o||
|-2-2-2---2-(2)---0---------||
|-0-0-----------------4-----||
|--------------------------o||
|-4-4-----------------------||


  2.
  Gmadd4                      D7/F#
  Gtrs I, II
  E. S +S  S E +S  E S S E.    E.  S  +S   S  E  +S   E  S  E  S S
|-5--5-(5)-5-5-(5)-5-5-5-5--|--0---0--(0)--0--0--(0)--0--0--0--0-x-|
|-0--0-(0)-0-0-(0)-0-0-0-0--|--0---0--(0)--0--0--(0)--0--0--0--0-x-|
|-3--3-(3)-3-3-(3)-3-3-3-3--|-11--11-(11)-11-11-(11)-11-11-11-11-x-|
|-0--0-(0)-0-0-(0)-0-0-0-0--|--0---0--(0)--0--0--(0)--0--0--0--0-x-|
|---------------------------|--9---9--(9)--9--9--(9)--9--9--9--9-x-|
|-5--5-(5)-5-5-(5)-5-5-5-5--|--------------------------------------|
|
| Gtr III
| W                            E.  S  +S   S  E  +S   E  S  Q
|---------------------------|--------------------------------------|
|---------------------------|--------------------------------------|
|---------------------------|--------------------------------------|
|---------------------------|--0---0--(0)--0--0--(0)--0--0--0------|
|---------------------------|--0---0--(0)--0--0--(0)--0--0--0------|
|---------------------------|--0---0--(0)--0--0--(0)--0--0--0------|


  D7sus2         D7sus2        D7
   E.  S  +S   S  E  +S   E  S  S  E.
|--0---0--(0)--0--0--(0)--0--0--0--0--|
|--0---0--(0)--0--0--(0)--0--0--0--0--|
|-11--11-(11)-11-12-(12)-12-12-14-14--|
|--0---0--(0)--0--0--(0)--0--0--0--0--|
|--9---9--(9)--9-10-(10)-10-10-12-12--|
|-------------------------------------|
|
|  E.  S  +S   S  E  +S   E  S  Q
|-------------------------------------|
|-------------------------------------|
|-------------------------------------|
|--0---0--(0)--0--0--(0)--0--0--0-----|
|--0---0--(0)--0--0--(0)--0--0--0-----|
|--0---0--(0)--0--0--(0)--0--0--0-----|


  Bbadd9
   E.  S  +S   S  E  +S   E  S  S  E.
|--0---0--(0)--0--0--(0)--0--0--0--0--|
|--0---0--(0)--0--0--(0)--0--0--0--0--|
|-10--10-(10)-10-10-(10)-10-10-10-10--|
|--8---8--(8)--8--8--(8)--8--8--8--8--|
|--8---8--(8)--8--8--(8)--8--8--8--8--|
|--8---8--(8)--8--8--(8)--8--8--8--8--|
|
|  E.  S  +S   S  E  +S   E  S  Q
|-------------------------------------|
|-------------------------------------|
|-------------------------------------|
|--8---8--(8)--8--8--(8)--8--8--8-----|
|--8---8--(8)--8--8--(8)--8--8--8-----|
|--8---8--(8)--8--8--(8)--8--8--8-----|


                                        D7/F#
   E.  S  +S   S  E  +S   E  S  S  E.   E. S +S  S E +S  E S S E.
|--0---0--(0)--0--0--(0)--0--0--0--0--|-0--0-(0)-0-0-(0)-0-0-0-0---|
|--0---0--(0)--0--0--(0)--0--0--0--0--|-0--0-(0)-0-0-(0)-0-0-0-0---|
|-10--10-(10)-10-10-(10)-10-10-10-10--|-2--2-(2)-2-2-(2)-2-2-2-2---|
|--8---8--(8)--8--8--(8)--8--8--8--8--|-0--0-(0)-0-0-(0)-0-0-0-0---|
|--8---8--(8)--8--8--(8)--8--8--8--8--|----------------------------|
|--8---8--(8)--8--8--(8)--8--8--8--8--|-4--4-(4)-4-4-(4)-4-4-4-4---|
|
|  E.  S  +S   S  E  +S   E  S  Q       E. S +S  S E +S  E S Q
|-------------------------------------|----------------------------|
|-------------------------------------|----------------------------|
|-------------------------------------|----------------------------|
|--8---8--(8)--8--8--(8)--8--8--8-----|-0--0-(0)-0-0-(0)-0-0-0-----|
|--8---8--(8)--8--8--(8)--8--8--8-----|-0--0-(0)-0-0-(0)-0-0-0-----|
|--8---8--(8)--8--8--(8)--8--8--8-----|-4--4-(4)-4-4-(4)-4-4-4-----|


  Gmadd4                      D7/F#
  E. S +S  S E +S  E S S E.   E. S +S  S E +S  E S S E.
|-5--5-(5)-5-5-(5)-5-5-5-5--|-0--0-(0)-0-0-(0)-0-0-0-0--|
|-0--0-(0)-0-0-(0)-0-0-0-0--|-0--0-(0)-0-0-(0)-0-0-0-0--|
|-3--3-(3)-3-3-(3)-3-3-3-3--|-2--2-(2)-2-2-(2)-2-2-2-2--|
|-0--0-(0)-0-0-(0)-0-0-0-0--|-0--0-(0)-0-0-(0)-0-0-0-0--|
|---------------------------|---------------------------|
|-5--5-(5)-5-5-(5)-5-5-5-5--|-4--4-(4)-4-4-(4)-4-4-4-4--|
|
| E. S +S  S E +S  E S Q      E. S +S  S E +S  E S Q
|---------------------------|---------------------------|
|---------------------------|---------------------------|
|---------------------------|---------------------------|
|-5--5-(5)-5-5-(5)-5-5-5----|-0--0-(0)-0-0-(0)-0-0-0----|
|-5--5-(5)-5-5-(5)-5-5-5----|-0--0-(0)-0-0-(0)-0-0-0----|
|-5--5-(5)-5-5-(5)-5-5-5----|-4--4-(4)-4-4-(4)-4-4-4----|


  Gmadd4                      D7                       D7/F#  Bbadd9
  E. S +S  S E +S  E S S E.   E E E E E E E E   E E  E E E  E   Q     +W
|-5--5-(5)-5-5-(5)-5-5-5-5--|-----0-------0---|---0------0----^-0--|--(0)----*|
|-0--0-(0)-0-0-(0)-0-0-0-0--|-----0-------0---|---0------0----^-0--|--(0)----*|
|-3--3-(3)-3-3-(3)-3-3-3-3--|---5---5---5-----|-9---11-----11-^10--|-(10)----*|
|-0--0-(0)-0-0-(0)-0-0-0-0--|-----------------|---------------^-8--|--(8)----*|
|---------------------------|-3-------5-----7-|--------9------^-8--|--(8)----*|
|-5--5-(5)-5-5-(5)-5-5-5-5--|-----------------|---------------^-8--|--(8)----*|
|
| W                           W                 W                      W
|---------------------------|-----------------|--------------------|---------*|
|---------------------------|-----------------|--------------------|---------*|
|---------------------------|-----------------|--------------------|---------*|
|-5-------------------------|-----------------|--------------------|---------*|
|-5-------------------------|-----------------|--------------------|---------*|
|-5-------------------------|-----------------|--------------------|---------*|




--------------------------------------------------------------------------------


Duration Legend
---------------
W - whole; H - half; Q - quarter; E - 8th; S - 16th; T - 32nd; X - 64th; a - acciaccatura
+ - note tied to previous; . - note dotted; .. - note double dotted
Uncapitalized letters represent notes that are staccato (1/2 duration)
Irregular groupings are notated above the duration line
Duration letters will always appear directly above the note/fret number it represents the
duration for.  Duration letters with no fret number below them represent rests.  Multi-
bar rests are notated in the form Wxn, where n is the number of bars to rest for.  Low
melody durations appear below the staff

Tablature Legend
----------------
 h   - hammer-on
 p   - pull-off
 b   - bend
 pb  - pre-bend
 r   - bend release (if no number after the r, then release immediately)
 /\  - slide into or out of (from/to "nowhere")
 s   - legato slide
 S   - shift slide
 - natural harmonic
[n]  - artificial harmonic
n(n) - tapped harmonic
 ~   - vibrato
 tr  - trill
 T   - tap
 TP  - trem. picking
 PM  - palm muting
\n/  - tremolo bar dip; n = amount to dip
 \n  - tremolo bar down
 n/  - tremolo bar up
/n\  - tremolo bar inverted dip
 =   - hold bend; also acts as connecting device for hammers/pulls
 <> - volume swell (louder/softer)
 x   - on rhythm slash represents muted slash
 o   - on rhythm slash represents single note slash

Misc Legend
-----------
 |  - bar
||  - double bar
||o - repeat start
o|| - repeat end
*|  - double bar (ending)
 :  - bar (freetime)
 $  - Segno
 &  - Coda
Tempo markers -  = BPM(8/16=s8/s16), where s8 = swing 8ths, s16 = swing 16ths


Tap to rate this tab
 
# A B C D E F G H I J K L M N O P Q R S T U V W X Y Z