Song name
# A B C D E F G H I J K L M N O P Q R S T U V W X Y Z

Sevendust - Dark Am tab

Sevendust: Dark AM

Transcribed by: mysticguitar77

YouTube Username: MysticGuitar77

Date last modified: March 31, 2013

Tuning: Altered Drop B (B,F#,B,E,F#,B)

Intro
 B|------|
F#|------|
 E|-9b---|
 B|-x----|
F#|-7b---|
 B|------|

Riff 1
 B|----------------------------0~-|
F#|----------------------------0~-|
 E|-9b-------9b---9b-------9b-----|
 B|-x---22-2-x----x---22-2-x------|
F#|-7b--22-2-7b---7b--22-2-7b-----|
 B|-----22-2----------22-2--------|
        ** *          ** *

Play Riff 1 x4   "I take the broke down, run down..."

Riff 2   "You say you're living..."
 B|------------------------------0~-|
F#|------------------------------0~-|
 E|-13b-------7b---13b-------7b-----|
 B|-x----22-2-x----x----22-2-x------|
F#|-11b--22-2-5b---11b--22-2-5b-----|
 B|------22-2-----------22-2--------|
         ** *           ** *

Play Riff 2 x2   "Taking just about everything..."
                 (disregard those last open notes the last time through)

Riff 3   "Live until you die..."
 B|-----------------------------------------------------------------0-|
F#|-----------------------------------------------------------------0-|
 E|-----------------5-5-5-5-5-5-5-5-----------------------------------|
 B|-2-2-2-2-2-2-2-2-x-x-x-x-x-x-x-x-0-0-0-0-0-0-0-0-7-7-7-7-7-7-0-0---|
F#|-2-2-2-2-2-2-2-2-3-3-3-3-3-3-3-3-0-0-0-0-0-0-0-0-7-7-7-7-7-7-0-0---|
 B|-2-2-2-2-2-2-2-2-----------------0-0-0-0-0-0-0-0-7-7-7-7-7-7-0-0---|

 B|-----------------------------------------------------------------0-|
F#|-----------------------------------------------------------------0-|
 E|-----------------5-5-5-5-5-5-5-5-7-7-7-7-7-7-7-7-------------------|
 B|-2-2-2-2-2-2-2-2-x-x-x-x-x-x-x-x-7-7-7-7-7-7-7-7-7-7-7-7-7-7-0-0---|
F#|-2-2-2-2-2-2-2-2-3-3-3-3-3-3-3-3-5-5-5-5-5-5-5-5-7-7-7-7-7-7-0-0---|
 B|-2-2-2-2-2-2-2-2-----------------0-0-0-0-0-0-0-0-7-7-7-7-7-7-0-0---|

Play Riff 1 x2   "I see the blown out, burned out..."
Play Riff 2 x2   "The sky is bleeding, falling..."
                 (play an open note on the low B at the end instead
                  and let ring into the chorus)
Play Riff 3 x2   "Live until you die..."

Riff 4   "I come alive to see the bitter end..."
 B|--------------------------|
F#|--------------------------|
 E|-5~-----------------------|
 B|-x-----4~----5~----2~-----|
F#|-3~----x-----x-----2~-----|
 B|-------4~----5~----2~---0-|

Play Riff 4 x4   "Say it now, tell me nothing's wrong..."
Play Riff 3 x2   "Live until you die..."

Enjoy!!
Tap to rate this tab
 
# A B C D E F G H I J K L M N O P Q R S T U V W X Y Z