Song name
# A B C D E F G H I J K L M N O P Q R S T U V W X Y Z

Sevendust - Murder Bar tab

Sevendust: Murder Bar

Transcribed by: mysticguitar77

YouTube Username: MysticGuitar77

Date last modified: July 18, 2013

Tuning: Altered Drop A# (A#,F,A#,D#,F,A#)

Tuning note: You can just tune to standard Drop A# (A#,F,A#,D#,G,C) if you
             wish for this song since the 1st and 2nd strings aren't used (at
             least for the parts I tabbed) however, to remain consistent with
             how the rest of the album is tuned, the notation for this tab
             will read with the altered tuning. 

Riff 1   "Scrape that blood off your face..."
A#|-------------------------------|
 F|-------------------------------|
D#|-13-----13-----13-------17-17b-|
A#|-x------x------x--------x--x---|   x3
 F|-11-----11-----11-------15-15b-|
A#|----0-0----0-0----0-0----------|

A#|---------------------------------------|
 F|---------------------------------------|
D#|-13-----13-----13-13-13-14-14-14-17-17-|
A#|-x------x------x--x--x--x--x--x--x--x--|
 F|-11-----11-----11-11-11-12-12-12-15-15-|
A#|----0-0----0-0-------------------------|

Play Riff 1 x2   "Life's ripping away your failing system..."

Riff 2   "I can't see in my world no more..."
A#|-----------------------------------------|
 F|-----------------------------------------|
D#|-----------------------------------------|
A#|-----------------------------------------|
 F|-0-0-0---0-0-0---0-0-0-------------------|
A#|-0-0-0---0-0-0---0-0-0---3-2-0-3-2-0-3-2-|
    * * *   * * *   * * *

Play Riff 2 x2

Riff 3   "Hit the daybreak, watch your life melt away..."
A#|----------------------------------------------------------|
 F|----------------------------------------------------------|
D#|----------------------------------------------------------|
A#|----------------------------------------------------------|
 F|----------------------------------------------------------|
A#|-0-0-0---0-0-0---0-0-0---3h5-5-3-3-0-1--1-0--1-0--0-0-0-0-|

A#|------------------------------|
 F|------------------------------|
D#|------------------------------|
A#|------------------------------|
 F|------------------------------|
A#|-0-0-0---8h10-10-8-8-8-/15-15-|

Riff 4   "Blistered and burned..."
A#|------------------------------------------------------------------|
 F|------------------------------------------------------------------|
D#|--------13b--------13b-------13b----------------------------------|
A#|--------x----------x---------x------------------------------------|
 F|--------11b--------11b-------11b----------------------------------|
A#|-0-0-0------0-0-0------0-0-0-----3h5-5-3-3-0-1--1-0--1-0--0-0-0-0-|

A#|-------------------------------------|
 F|-------------------------------------|
D#|-13b--------13b----------------------|
A#|-x----------x------------------------|
 F|-11b--------11b----------------------|
A#|-----0-0-0------8h10-10-8-8-8-/15-15-|

Fill 1
A#|-------------|
 F|-------------|
D#|-------------|
A#|-------------|
 F|-------------|
A#|-0~----------|

Play Riff 1 x2   "Run now from the void you create..."

Riff 1 alteration (beginning of 2nd time through)
A#|----------------------------------|
 F|----------------------------------|
D#|-13-------13-------13------17-17b-|
A#|-x--------x--------x-------x--x---|
 F|-11-------11-------11------15-15b-|
A#|----0-0-0----0-0-0----0-0---------|
       * * *    * * *

Play Riff 2 x1   "You can't see in my world no more..."

Riff 2 alteration
A#|-----------------------------------------------|
 F|-----------------------------------------------|
D#|-----------------------------------------------|
A#|-----------------x-x-x-x-x-x-x-x-2------2------|
 F|-0-0-0---0-0-0---x-x-x-x-x-x-x-x---------------|
A#|-0-0-0---0-0-0---x-x-x-x-x-x-x-x---2b-2---2b-2-|
    * * *   * * *

Play Riff 3 x1   "Hit the daybreak, watch your life melt away..."
Play Riff 4 x1   "Blistered and burned..."

Riff 5
A#|---------------------------------------|
 F|---------------------------------------|
D#|----14--------15--------14-------------|
A#|----x---------x---------x--------------|
 F|----12--------13--------12-------------|
A#|-0-----0-0--0----0-0--0----0-8h10-10-8-|

Fill 2  "You speak no more!!"
A#|-------------------|
 F|-------------------|
D#|-------------------|
A#|-------------------|
 F|-------------------|
A#|-2-1--2-1--2--2-1~-|

Riff 6   "I see it coming..."
A#|------------------------------------------------|
 F|------------------------------------------------|
D#|------------------------------------------------|
A#|------------------------------------------------|
 F|------------------------------------------------|
A#|-2-2-1---2-2-2--2-1-1-5-5-3---2-1--2-1--2--2-1~-|

Play Riff 6 x2

Riff 7   "You say no more!!"
A#|------------------------------------------------|
 F|------------------------------------------------|
D#|------------------------------------------------|
A#|-2-2-1---2-2-2--2-1-1-5-5-3---2-1--2-1--2--2-1~-|
 F|-2-2-1---2-2-2--2-1-1-5-5-3---2-1--2-1--2--2-1~-|
A#|-2-2-1---2-2-2--2-1-1-5-5-3---2-1--2-1--2--2-1~-|

Note: Rhythm is funky here, listen to song for exact timing.

Play Riff 3 x1   "Hit the daybreak..."

Riff 3 alteration (2nd half of this riff)
A#|-----------------------------------------------------------------|
 F|-----------------------------------------------------------------|
D#|-----------------------------------------------------------------|
A#|-----------------------------------------------------------------|
 F|-----------------------------------------------------------------|
A#|-3h5-5-3-3-0-1--000-0-0-0-0-0-0-0---0-0-0---8h10-10-8-8-8-/15-15-|
                   ***   * * *

Play Riff 4 x1   "Blistered and burned..."

Ending
A#|-----------------------------------------------------------------------|
 F|-----------------------------------------------------------------------|
D#|-----------------------------------------------------------------------|
A#|-x-x-x-x-x-x-----------------------------------------------------------|
 F|-x-x-x-x-x-x-------------------------------------------------0-0-0-\\\-|
A#|-x-x-x-x-x-x-0-0-0---0-0-0---0-0-0--3h5-5-3-3-0-1--1-0--1-0--0-0-0-\\\-|

Ends with a slow downward slide. 

Enjoy!!
       
Tap to rate this tab
# A B C D E F G H I J K L M N O P Q R S T U V W X Y Z