Song name
# A B C D E F G H I J K L M N O P Q R S T U V W X Y Z

Sevendust - Under It All tab

Sevendust: Under It All

Transcribed by: mysticguitar77

YouTube Channel: MysticGuitar77

Date last modified: April 11, 2014

Tuning: Modified Drop B (B,F#,B,E,A,B)

Riff 1 (let all notes ring out)
 B|--------------------------|
 A|--------------------------|
 E|------0-----0-----0-----0-|
 B|---12-----8-----8-----7---|
F#|--------------------------|
 B|-8------5-----5-----5-----|

Play Riff 1 x12   "I can travel far below to see the light of day..."

Riff 2   "It's so much fun this time around..."
 B|-------------------------0-------------------------------0-0-|
 A|-----0-----0-----0-----0---0---0-----0-----0-----0-----0---0-|
 E|---0-----0-----0-----0-------0-----0-----0-----0-----0-------|
 B|-------------------------------------------------------------|
F#|-5-----6-------------------------5-----6---------------------|
 B|-------------7-----8-------------------------7-----8---------|

Riff 3   "I'm breathing life into you..."
 B|-0------0------0------|
 A|-0------0------0------|
 E|-7------5------3------|
 B|-5------3------1------|
F#|-5------3------1------|
 B|-5------3------1------|

Riff 3 note: Just the chords, the strumming pattern is pretty 
             straightforward.

Play Riff 3 x2   "So tell me what I should do..."
Play Riff 1 x12  "So open up your eyes..."
Play Riff 2 x1   "It's so much fun this time around..."
Play Riff 3 x2   "I'm breathing life into you..."

Riff 4 (electric guitar, tons of effects)
 B|-------------------------------|
 A|-------------------------------|
 E|-------------------------------|
 B|-5-------5-----9-----5-----5-7-| x2
F#|-------------------------------|
 B|---5-5\----5-5---5-5---5-5-----|

 B|----------------------------------------------------------|
 A|----------------------------------------------------------|
 E|----------------------------------------------------------|
 B|-5-------5-----7-----5-----5---5------5-----5-----5-------|
F#|----------------------------------------------------------|
 B|---3-3\----3-3---3-3---3-3---3---1-1----1-1---1-1---1-1/3-|

Lead (electric guitar, let all notes ring out)
 B|------17-----17----17-----------17----|
 A|-/14-----12-----11-----11-11/12----12-|
 E|--------------------------------------|
 B|--------------------------------------|
F#|--------------------------------------|
 B|--------------------------------------|

 B|-------------0-------------0------------|
 A|-12----12-------------------------------|
 E|----16----12---14-14b15-14---12\-10\-7~-|
 B|----------------------------------------|
F#|----------------------------------------|
 B|----------------------------------------|

Play Riff 3 x4   "I'm breathing life into you..."

Enjoy!!


Tap to rate this tab
# A B C D E F G H I J K L M N O P Q R S T U V W X Y Z