Song name
# A B C D E F G H I J K L M N O P Q R S T U V W X Y Z

Sevendust - The Wait tab

Sevendust: The Wait

Transcribed by: mysticguitar77

YouTube Channel: MysticGuitar77

Date last modified: April 11, 2014

Tuning: Modified Drop B (B,F#,B,E,A,B)

Riff 1
 B|-0--0-0-0-0-0-0-0-0---0--0-0-0-0--0-0-0-0--0-0-0-0--0-0-|
 A|-0--0-0-0-0-0-0-0-0---0--0-0-0-0--0-0-0-0--0-0-0-0--0-0-|
 E|-9--9-9-9-9-7-9-9-9---5--5-5-5-5--5-5-5-5--5-5-5-5--5-5-|
 B|-7--7-7-7-7-5-7-7-7---3--3-3-3-3--3-3-3-3--3-3-3-3--3-3-|
F#|-7--7-7-7-7-5-7-7-7-0-3--3-3-3-3--3-3-3-3--3-3-3-3--3-3-|
 B|-7--7-7-7-7-5-7-7-7-0-3--3-3-3-3--3-3-3-3--3-3-3-3--3-3-|

 B|-0--0-0-0-0--0------0-0---0--0-0-0-0--0-0-0-0-0-----|
 A|-0--0-0-0-0--0------0-0---0--0-0-0-0--0-0-0-0-0-----|
 E|-9--9-9-9/12-12-----7-7---7--7-7-7-7--7-7-7/9-9-----|
 B|-7--7-7-7/10-10-----x-x---5--5-5-5-5--5-5-5/7-7-----|
F#|-7--7-7-7/10-10-0-0-5-5-0-5--5-5-5-5--5-5-5/7-7-0-0-|
 B|-7--7-7-7/10-10-0-0-----0-5--5-5-5-5--5-5-5/7-7-0-0-|

 B|-0--0-0-0-0--0-0-0-0--0-0-0-0-----0--0-0-0-0--0-0-0-0--0-0-0-0--0-0-0-|
 A|-0--0-0-0-0--0-0-0-0--0-0-0-0-----0--0-0-0-0--0-0-0-0--0-0-0-0--0-0-0-|
 E|-5--5-5-5-5--5-5-5-5--5-5-5-5-----4--4-4-4-4--4-4/7-7--7-7-7-7--7-7-7-|
 B|-3--3-3-3-3--3-3-3-3--3-3-3-3-----3--3-3-3-3--3-3/5-5--5-5-5-5--5-5-5-|
F#|-3--3-3-3-3--3-3-3-3--3-3-3-3-3-3-3--3-3-3-3--3-3/5-5--5-5-5-5--5-5-5-|
 B|-3--3-3-3-3--3-3-3-3--3-3-3-3-3-3-3--3-3-3-3--3-3/5-5--5-5-5-5--5-5-5-|

Play Riff 1 x3   "Lost inside a dream alone..."

Riff 1 ending alteration (right before pre-chorus)
 B|-----0--0-0-0-0--0-0-0-0--0-0-0-0--0-0-0-|
 A|-----0--0-0-0-0--0-0-0-0--0-0-0-0--0-0-0-|
 E|-----4--4-4-4-4--4-4-4-4--4-4h5-5--5-5-5-|
 B|-----3--3-3-3-3--3-3-3-3--3-3-3-3--3-3-3-|
F#|-3-3-3--3-3-3-3--3-3-3-3--3-3-3-3--3-3-3-|
 B|-3-3-3--3-3-3-3--3-3-3-3--3-3-3-3--3-3-3-|

Riff 2
 B|-0--0-0-0-0--0-0-0-0-0---0--0--0--0---0--0--0--0--|
 A|-0--0-0-0-0--0-0-0-0-0---0--0--0--0---0--0--0--0--|
 E|-7--7-7-7-7--7-7-7-7/16--16-16-16-16--16-16-16-16-|
 B|-x--x-x-x-x--x-x-x-x-x---x--x--x--x---x--x--x--x--|
F#|-5--5-5-5-5--5-5-5-5/14--14-14-14-14--14-14-14-14-|
 B|--------------------------------------------------|

 B|--0---0--0--0--0---0--0--0--0--0---0--0--0--0---0--0--0--0--|
 A|--0---0--0--0--0---0--0--0--0--0---0--0--0--0---0--0--0--0--|
 E|-/17--17-17-17-17--17-17-17-17/19--19-19-19-19--19-19-19-19-|
 B|--x---x--x--x--x---x--x--x--x--x---x--x--x--x---x--x--x--x--|
F#|-/15--15-15-15-15--15-15-15-15/17--17-17-17-17--17-17-17-17-|
 B|------------------------------------------------------------|

Riff 3   "The page will turn..."
 B|-0------0------0------0------0------0------|
 A|-0------0------0------0------0------0------|
 E|-5------4------9------7------5------4------|
 B|-3------2------7------5------3------2------| just the chords
F#|-3------2------7------5------3------2------|
 B|-3------2------7------5------3------2------|

   "...let it go, let it go and close your eyes and find a dream..."
 B|-0--0-0-0-0--0-0-0-0--0-0-0-0--0-0-0-0---0-0---|
 A|-0--0-0-0-0--0-0-0-0--0-0-0-0--0-0-0-0---0-0---|
 E|-2--2-2-2/5--5-5-5/7--7-7-7/9--9-9-9/12--12-12-|
 B|-0--0-0-0-0--0-0-0-0--0-0-0-0--0-0-0-0---0-0---|
F#|-0---------------------------------------------|
 B|-0---------------------------------------------|

 B|-0--0---0--0--0--0---0--0--0--0---0--0--0--0---0--0--|
 A|-0--0---0--0--0--0---0--0--0--0---0--0--0--0---0--0--|
 E|-12/14--14-14-14/16--16-16-16/17--17-17-17/19--19-19-|
 B|-0--0---0--0--0--0---0--0--0--0---0--0--0--0---0--0--|
F#|-----------------------------------------------------|
 B|-----------------------------------------------------|

   "...the seconds burn and I will wait..."
 B|-0------0------0--------|
 A|-0------0------0--------|
 E|-5------4------7--------|
 B|-3------2------5--------| just the chords again
F#|-3------2------5--------|
 B|-3------2------5--------|

Play Riff 1 x2   "Send a message when you're home..."
Play Riff 2 x1 
Play Riff 3 x1   "The page will turn..."
Play Riff 1 x1.5 (cuts into the chorus about halfway through this time)
Play Riff 3 x2   "The page will turn..."

Ending   "Send a message when you're home..."
 B|-0--0-0-0-0-0-0-0-0---0~-|
 A|-0--0-0-0-0-0-0-0-0---0~-|
 E|-9--9-9-9-9-7-9-9-9---5~-|
 B|-7--7-7-7-7-5-7-7-7---3~-|
F#|-7--7-7-7-7-5-7-7-7-0-3~-|
 B|-7--7-7-7-7-5-7-7-7-0-3~-|

Beautiful song, Enjoy!!
Tap to rate this tab
# A B C D E F G H I J K L M N O P Q R S T U V W X Y Z