Song name
# A B C D E F G H I J K L M N O P Q R S T U V W X Y Z

Sevendust - Headtrip tab

Help us improve GuitareTab! Take a short survey!
Band - Sevendust
Song - Headtrip
Album - Home
Tuning - Drop C# ( C# B C# F# A# D# )

INTRO
|-----------------------------------------------------------------|
|-----------------------------------------------------------------|
|----------------3-------------------------------3----------------|
|----------------------2-------------------------------2----------|
|-----------------------------------------------------------------|
|-2----------------------------0--2----------------------------0--|
|
|
|-----------------------------------------------------------------|
|-9-9-9-9-9-9-9-9-9-9-9-9-9-9-9-9-9-9-9-9-9-9-9-9-9-9-9-9-9-9-9-9-|
|-----------------------------------------------------------------|
|-7-7-7-7-7-7-7-7-7-7-7-7-7-7-7-7-7-7-7-7-7-7-7-7-7-7-7-7-7-7-7-7-|
|-----------------------------------------------------------------|
|
|
|---------------------------------------------------------------------|
|----------------0b---------------------0b----------------------------|
|----------------0b---------------------0b----------------------------|
|----------------0b---------------------0b----------------------------|


KICK IN
|-------------------------------------------------------------------|
|-4-4-4-4-4-4-4-4-4-4-4-4----------4-4-4-4-4-4-4-4-4-4-4-4----------|
|-------------------------0b-------------------------------0b-------|
|-2-2-2-2-2-2-2-2-2-2-2-2-0b-------2-2-2-2-2-2-2-2-2-2-2-2-0b-------|
|-------------------------0b-------------------------------0b-------|
|
|-------------------------------------------------------------------|
|-9-9-9-9-9-9-9-9-9-9-9-9----------9-9-9-9-9-9-9-9-9-9-9-9----------|
|-------------------------0b-------------------------------0b-------|
|-7-7-7-7-7-7-7-7-7-7-7-7-0b-------7-7-7-7-7-7-7-7-7-7-7-7-0b-------|
|-------------------------0b-------------------------------0b-------|

MAIN
|-------------------------------------------------------------|
|-------------------------------------------------------------|
|---------10--------------------------------------------------|
|-3---2---8----------9---------9-br----8--------0-2-3---2-----|
|-3---2--------------7---------9-br----8--------0-2-3---2-----|
|-3---2------------------------9-br----8--------0-2-3---2-----|


|-----------------------------------------------------------|
|-----------------------------------------------------------|
|---------10------------------------------------------------|
|-3---2---8----------9---------9-br----12-------0-2-3---2---|
|-3---2--------------7---------9-br----12-------0-2-3---2---|
|-3---2------------------------9-br----12-------0-2-3---2---|

|-----------------------------------------------------------|
|-----------------------------------------------------------|
|---------9--b----------------------------------------------|
|-3---2---7--b-------9---------9-br----8--------0-2-3---2---|
|-3---2--------------7---------9-br----8--------0-2-3---2---|
|-3---2------------------------9-br----8--------0-2-3---2---|


|-----------------------------------------------------------|
|-----------------------------------------------------------|
|---------10------------------------------------------------|
|-3---2---8----------9---------9-br----12-------0-2-3---2---|
|-3---2--------------7---------9-br----12-------0-2-3---2---|
|-3---2------------------------9-br----12-------0-2-3---2---|

VERSE
|----------------------------------------------------------------|
|-109-----9br----9br----9br--------------------------------------|
|-------------------------------0h2-----2----2-0-----2-----3-2-2-|
|-8-7-----7br----7br----7br-----0h2-----2----2-0-----2-----3-2-2-|
|-------------------------------0h2-----2----2-0-----2-----3-2-2-|

CREATE RIFF
|-------------------------------------------------------------------|
|-3-3-3-3-3-3-3-3-3-3-3-3----------3-3-3-3-3-3-3-3-3-3-3-3----------|
|-------------------------0b-------------------------------0b-------|
|-1-1-1-1-1-1-1-1-1-1-1-1-0b-------1-1-1-1-1-1-1-1-1-1-1-1-0b-------|
|-------------------------0b-------------------------------0b-------|
|
|-------------------------------------------------------------------|
|-9-9-9-9-9-9-9-9-9-9-9-9----------9-9-9-9-9-9-9-9-9-9-9-9----------|
|-------------------------0b-------------------------------0b-------|
|-7-7-7-7-7-7-7-7-7-7-7-7-0b-------7-7-7-7-7-7-7-7-7-7-7-7-0b-------|
|-------------------------0b-------------------------------0b-------|

MAIN

VERSE

CREATE RIFF


SELF DESTRUCT RIFF
|---------------------------------------------------------------------|
|-4-4-4-4-4-4-4-4-4-4-4/5-----------4-4-4-4-4-4-4-4-4-4-4/5-----------|
|--------------------------0b--------------------------------0b-------|
|-2-2-2-2-2-2-2-2-2-2-2/3--0b-------2-2-2-2-2-2-2-2-2-2-2/3--0b-------|
|--------------------------0b--------------------------------0b-------|
|
|---------------------------------------------------------------------|
|-111111111111111111111112----------111111111111111111111112----------|
|--------------------------0b--------------------------------0b-------|
|-9-9-9-9-9-9-9-9-9-9-9-10-0b-------9-9-9-9-9-9-9-9-9-9-9-10-0b-------|
|--------------------------0b--------------------------------0b-------|

MAIN


MIDDLE
|-----------------------------------------------------------------|
|-4-4-4-4-4-4-4-4-4-4-4-4-4-4-----3-3-3-3-3-3-3-3-3-3-3-3-3-3-----|
|-----------------------------------------------------------------|
|-2-2-2-2-2-2-2-2-2-2-2-2-2-2-----1-1-1-1-1-1-1-1-1-1-1-1-1-1-----|
|-----------------------------------------------------------------|
|
|-----------------------------------------------------------------|
|-----------------------------------------------------------------|
|-2-2-2-2-2-2-2-2-2-2-2-2-2-2-2-2-1-1-1-1-1-1-1-1-1-1-1-1-1-1-1-1-|
|-2-2-2-2-2-2-2-2-2-2-2-2-2-2-2-2-1-1-1-1-1-1-1-1-1-1-1-1-1-1-1-1-|
|-2-2-2-2-2-2-2-2-2-2-2-2-2-2-2-2-1-1-1-1-1-1-1-1-1-1-1-1-1-1-1-1-|

|-----------------------------------------------------------------|
|-4-4-4-4-4-4-4-4-4-4-4-4-4-4-----3-3-3-3-3-3-3-3-3-3-3-3-3-3-----|
|-----------------------------------------------------------------|
|-2-2-2-2-2-2-2-2-2-2-2-2-2-2-----1-1-1-1-1-1-1-1-1-1-1-1-1-1-----|
|-----------------------------------------------------------------|
|
|-----------------------------------------------------------------|
|-----------------------------------------------------------------|
|-2-2-2-2-2-2-2-2-2-2-2-2-2-2-2-2-1-1-1-1-1-1-1-1-1-1-1-1-1-1-1-1-|
|-2-2-2-2-2-2-2-2-2-2-2-2-2-2-2-2-1-1-1-1-1-1-1-1-1-1-1-1-1-1-1-1-|
|-2-2-2-2-2-2-2-2-2-2-2-2-2-2-2-2-1-1-1-1-1-1-1-1-1-1-1-1-1-1-1-1-|

|-----------------------------------------------------------------|
|-4-4-4-4-4-4-4-4-4-4-----4-4-----3-3-3-3-3-3-3-3-3-3-3-3-3-3-3-3-|
|-2-2-2-2-2-2-2-2-2-2-----2-2-----1-1-1-1-1-1-1-1-1-1-1-1-1-1-1-1-|
|-2-2-2-2-2-2-2-2-2-2-----2-2-----1-1-1-1-1-1-1-1-1-1-1-1-1-1-1-1-|
|-2-2-2-2-2-2-2-2-2-2-----2-2-----1-1-1-1-1-1-1-1-1-1-1-1-1-1-1-1-|
|
|-----------------------------------------------------------------|
|-----------------------------------------------------------------|
|-2-2-2-2-2-2-2-2-2-2-2-2-2-2-2-2-1-1-1-1-1-1-1-1-1-1-1-1-1-1-1-1-|
|-2-2-2-2-2-2-2-2-2-2-2-2-2-2-2-2-1-1-1-1-1-1-1-1-1-1-1-1-1-1-1-1-|
|-2-2-2-2-2-2-2-2-2-2-2-2-2-2-2-2-1-1-1-1-1-1-1-1-1-1-1-1-1-1-1-1-|

|-----------------------------------------------------------------|
|-4-4-4-4-4-4-4-4-4-4-----4-4-----3-3-3-3-3-3-3-3-3-3-3-3-3-3-3-3-|
|-2-2-2-2-2-2-2-2-2-2-----2-2-----1-1-1-1-1-1-1-1-1-1-1-1-1-1-1-1-|
|-2-2-2-2-2-2-2-2-2-2-----2-2-----1-1-1-1-1-1-1-1-1-1-1-1-1-1-1-1-|
|-2-2-2-2-2-2-2-2-2-2-----2-2-----1-1-1-1-1-1-1-1-1-1-1-1-1-1-1-1-|
|
|-----------------------------------------------------------------|
|-9-9-9-9-9-9--9-9-9-9-9-9-9-9-9--11111111111111111112121212121212|
|-----------------------------------------------------------------|
|-7-7-7-7-7-7-7-7-7-7-7-7-7-7-7-7-9-9-9-9-9-9-9-9-9-10101010101010|
|-----------------------------------------------------------------|

INTRO

KICK IN


POWER RIFF
|------------------------------------------------|
|-9/-11-11-11-11-11-11-11-11-11-11-11------------|
|--------------------------------------0b--------|
|-7/-9--9--9--9--9--9--9--9--9--9--9---0b--------|
|--------------------------------------0b--------|
|
|------------------------------------------------|
|------------------------------------------------|
|-2--2--2--2--2--2--2--2--2--2--2--2---0b--------|
|-2--2--2--2--2--2--2--2--2--2--2--2---0b--------|
|-2--2--2--2--2--2--2--2--2--2--2--2---0b--------|


|------------------------------------------------|
|-11/12-12-12-12-12-12-12-12-12-12-12------------|
|--------------------------------------0b--------|
|-9-/10-10-10-10-10-10-10-10-10-10-10--0b--------|
|--------------------------------------0b--------|
|
|------------------------------------------------|
|------------------------------------------------|
|-2--2--2--2--2--2--2--2--2--2--2--2---0b--------|
|-2--2--2--2--2--2--2--2--2--2--2--2---0b--------|
|-2--2--2--2--2--2--2--2--2--2--2--2---0b--------|

|------------------------------------------------|
|-12/14-14-14-14-14-14-14-14-14-14-14------------|
|--------------------------------------0b--------|
|-10/12-12-12-12-12-12-12-12-12-12-12--0b--------|
|--------------------------------------0b--------|
|
|------------------------------------------------|
|------------------------------------------------|
|-2--2--2--2--2--2--2--2--2--2--2--2---0b--------|
|-2--2--2--2--2--2--2--2--2--2--2--2---0b--------|
|-2--2--2--2--2--2--2--2--2--2--2--2---0b--------|

|------------------------------------------------|
|-14/15-15-15-15-15-15-15-15-15-15-15------------|
|--------------------------------------0b--------|
|-12/13-13-13-13-13-13-13-13-13-13-13--0b--------|
|--------------------------------------0b--------|
|
|------------------------------------------------|
|------------------------------------------------|
|-2--2--2--2--2--2--2--2--2--2--2--2---0b--------|
|-2--2--2--2--2--2--2--2--2--2--2--2---0b--------|
|-2--2--2--2--2--2--2--2--2--2--2--2---0b--------|

KICK IN

POWER RIFF
Related for Headtrip tab