Song name
# A B C D E F G H I J K L M N O P Q R S T U V W X Y Z

Sevendust - To Close To Hate tab

          Sevendust
          To Close To Hate
          
          Tabbed by Jared
          
          RIFF A:
          
             C#|--------------------------------------------|
             G#|--------------------------------------------|
              E|--------------------------------------------| 
              B|-----------------------------------6-6-6-6--| 
             F#|--0--0--0--0--0--0--0--0--0--0--0--6-6-6-6--| 
              B|--0--0--0--0--0--0--0--0--0--0--0--6-6-6-6--|
          
               RIFF B:
          
             C#|--------------------------------|
             G#|--------------------------------|
              E|--------------------------------| 
              B|--------------------------------| 
             F#|--3p0-0--3p-0-0-0-0---0-0-------| 
              B|--3p0-0--3p-0-0-0-0---0-0--6/5--|
          
               RIFF C:
          
             C#|---------------------------------|
             G#|---------------------------------|
              E|---------------------------------| 
              B|---------------------------------| 
             F#|--3p0-0--3p0-0-------------------| 
              B|--3p0-0--3p0-0---3b----3b----3b--|
Tap to rate this tab
 
# A B C D E F G H I J K L M N O P Q R S T U V W X Y Z