Song name
# A B C D E F G H I J K L M N O P Q R S T U V W X Y Z

Sevendust - Leach tab

Help us improve GuitareTab! Take a short survey!
Band- Sevendust
Song- Leach

Standard Tuning

Intro :
-----------------------------------------------------------------------|
-----6----6---7--6------4--------------4-------------------------------|
--------------------------------6-------------6---6------6---6\4---6---|
---8----6------------6-----6-6------4------4--------6-4----------4-----|
-----------------------------------------------------------------------|
-----------------------------------------------------------------------|

------------------------------------------------------------------|
-----6----6---7--6------4------------6-6p7-9-7-----6--------------|
---------------------------------6--------------------------------|
---8----6------------6-----6-6------------------8--------6~~~~~---|
------------------------------------------------------------------|
------------------------------------------------------------------|

Verse :
-----------------|--------------------|-------------------------|-------------------|
-----------------|--------------------|-------------------------|-------------------|
-----------------|--------------------|---9--9--7-----7--7--9---|-------------------|
---2-2--2--2-2---|--------------------|-------------------------|-------------------|
---2-2--2--2-2---|--------------------|---7--7--5-----5--5--7---|-------5-7-5-------|
---2-2--2--2-2---|---2*-2*-2*-2*-2*---|-------------------------|---4-6-------6-4---|

Chorus :
gtr1 :
-------------------------------------------------------------------------------------|
-------------------------------------------------------------------------------------|
-----------------------------11-----------13----8--11---9-----------13----8--11---9--|
-8--10--11--13----8--10--11--11----8--10--13----8--11---9----8--10--13----8--11---9--|
-8--10--11--13----8--10--11--9-----8--10--11----6--9----7----8--10--11----6--9----7--|
-6--8---9---11----6--8---9---------6--8----------------------6--8--------------------|

gtr2 :
-------------------------|
-----2----2----2-----2---|
-------------------------|
-------------------------|
---1----1----1----1------|
-------------------------|

Solo :
----------------------------------------------------|
----------------------------------------------------|
---3-3-3-8-8-8-8-8-8-10-11-11-11-11-11-11\9-9-9-9---|
----------------------------------------------------|
---1-1-1-6-6-6-6-6-6-8--9--9--9--9---9--9\7-7-7-7---|
----------------------------------------------------|
Related for Leach tab