Song name
# A B C D E F G H I J K L M N O P Q R S T U V W X Y Z

Sevendust - My Ruin tab

Help us improve GuitareTab! Take a short survey!
Band- Sevendust
Song- My Ruin

Eb-||-------------------------------------------------------------------|
Bb-||*------------------------------------------------------------------|
Gb-||-------------------------------------------------------------------|
Db-||----0--7/-8--0--8/-10--0--12----0---7/-8--0--8/-10--0--12----14b15-|
Ab-||*---0--7/-8--0--8/-10--0--12----0---7/-8--0--8/-10--0--12----14b15-|
Db-||----0h-7/-8--0h-8/-10--0--12----0h--7/-8--0h-8/-10--0--12----14b15-|

Eb|---|----------------------------------------------------------------|
Bb|---|----------------------------------------------------------------|
Gb|---|-------------------------------------------------------------5b-|
Db|---|--0--7/-8--0--8/-10--0--12----0--7/-8--0--8/-10--0--12----------|
Ab|---|--0--7/-8--0--8/-10--0--12----0--7/-8--0--8/-10--0--12-------3b-|
Db|---|--0h-7/-8--0h-8/-10--0--12----0h-7/-8--0h-8/-10--0--12----------|

Eb|--------------------------------------------------------------------|-|
Bb|-------------------------------------------------------------------*|-|
Gb|--------------------------------------------------------------------|-|
Db|-------0--7/-8--0--8/-10--0--12------0--7/-8--0--8/-10--0--12-------|-|
Ab|-------0--7/-8--0--8/-10--0--12------0--7/-8--0--8/-10--0--12------*|-|
Db|-------0h-7/-8--0h-8/-10--0--12------0h-7/-8--0h-8/-10--0--12-------|-|

Eb|---------------------------------------------------------------------|
Bb|---------------------------------------------------------------------|
Gb|---------------------------------------------------------------------|
Db|---------------0-3-0---0-3-0-2-0---0-3-0---0-3-0--0-3-0-2-0--x-x-----|
Ab|---------------0-3-0---0-3-0-2-0---0-3-0---0-3-0--0-3-0-2-0--x-x-----|
Db|---------------0h3-0---0h3-0-2-0---0h3-0---0h3-0--0h3-0-2-0--x-x-4b5-|

Eb|---------------------------------------------------|-----------------|
Bb|---------------------------------------------------|-----------------|
Gb|---------------------------------------------------|-----------------|
Db|-----0-3-0---0-3-0-2-0---0-3-0---0-3-0--0-3-0-2-0--|-0-3-0---0-3-0-2-|
Ab|-----0-3-0---0-3-0-2-0---0-3-0---0-3-0--0-3-0-2-0--|-0-3-0---0-3-0-2-|
Db|-----0h3-0---0h3-0-2-0---0h3-0---0h3-0--0h3-0-2-0--|-0h3-0---0h3-0-2-|

Eb|---------------------------------------|----------------------------|
Bb|---------------------------------------|----------------------------|
Gb|---------------------------------------|----------------------------|
Db|-0---0-3-0---0-3-0--0-3-0-2-0--0-3-0-3-|------------------0---------|
Ab|-0---0-3-0---0-3-0--0-3-0-2-0--0-3-0-3-|---0-0-0--0-0--0--0---------|
Db|-0---0h3-0---0h3-0--0h3-0-2-0--0h3-0-3-|---0-0-0--0-0--0--0--0--0-0-|

Eb|---------------------------------|-----------------------------------|
Bb|---------------------------------|-----------------------------------|
Gb|---------------------------------|-----------------------------------|
Db|--0-----------------0----------0-|-----------------0----------0------|
Ab|--0--0-0-0--0-0--0--0----------0-|--0-0-0--0-0--0--0----------0--0-0-|
Db|--0--0-0-0--0-0--0--0--0--0-0--0-|--0-0-0--0-0--0--0--0--0-0--0--0-0-|

Eb|-------------------------|------------------------------------------|
Bb|-------------------------|------------------------------------------|
Gb|-------------------------|------------------------------------------|
Db|------------0----------0-|-----------0--7/-8--0--8/-10--0--12----0--|
Ab|-0--0-0--0--0----------0-|-----------0--7/-8--0--8/-10--0--12----0--|
Db|-0--0-0--0--0--0--0-0--0-|-----------0h-7/-8--0h-8/-10--0--12----0h-|

Eb-----------------------------------|---------------------------------|
Bb-----------------------------------|---------------------------------|
Gb-----------------------------------|---------------------------------|
Db--7/-8--0--8/-10--0--12----14b15---|--0--7/-8--0--8/-10--0--12----0--|
Ab--7/-8--0--8/-10--0--12----14b15---|--0--7/-8--0--8/-10--0--12----0--|
Db--7/-8--0h-8/-10--0--12----14b15---|--0h-7/-8--0h-8/-10--0--12----0h-|

Eb-----------------------------------------------------------------------|
Bb-----------------------------------------------------------------------|
Gb-----------------------------5b----------------------------------------|
Db-7/-8--0--8/-10--0--12----------------0--7/-8--0--8/-10--0--12------0--|
Ab-7/-8--0--8/-10--0--12-------3b-------0--7/-8--0--8/-10--0--12------0--|
Db-7/-8--0h-8/-10--0--12----------------0h-7/-8--0h-8/-10--0--12------0--|h

Eb------------------------------||---------------------------------------|
Bb-----------------------------*||---------------------------------------|
Gb------------------------------||---------------------------------------|
Db--7/-8--0--8/-10--0--12-------||----------------0-3-0---0-3-0-2-0---0--|
Ab--7/-8--0--8/-10--0--12------*||----------------0-3-0---0-3-0-2-0---0--|
Db--7/-8--0h-8/-10--0--12-------||----------------0h3-0---0h3-0-2-0---0--|h

Eb|---------------------------------------------------------------------|
Bb|---------------------------------------------------------------------|
Gb|---------------------------------------------------------------------|
Db|-3-0---0-3-0--0-3-0-2-0----0-3-0---0-3-0-2-0---0-3-0---0-3-0---0-3-0-|
Ab|-3-0---0-3-0--0-3-0-2-0----0-3-0---0-3-0-2-0---0-3-0---0-3-0---0-3-0-|
Db|-3-0---0h3-0--0h3-0-2-0----0h3-0---0h3-0-2-0---0h3-0---0h3-0---0h3-0-|

                                    BORN TO DIE!

Eb|--------------------------|-----------------------------|------------|
Bb|--------------------------|-----------------------------|------------|
Gb|--------------------------|--6--------------------------|------------|
Db|-2-0--0-3-0---0-3-0-2-0---|--4----8---7-----4-----8---7-|-0-3-0---0--|
Ab|-2-0--0-3-0---0-3-0-2-0---|--4----6---5-----4-----6---5-|-0-3-0---0--|
Db|-2-0--0h3-0---0h3-0-2-0---|--4--------------4-----------|-0h3-0---0--|h

                                          PLAY 4X

Eb|----------------------------------------------------------|----------|
Bb|----------------------------------------------------------|----------|
Gb|----------------------------------------------------------|----------|
Db|-3-0-2-0---0-3-0---0-3-0---0-3-0-2-0--0-3-0---0-3-0-2-0---|----------|
Ab|-3-0-2-0---0-3-0---0-3-0---0-3-0-2-0--0-3-0---0-3-0-2-0---|-0-0-0--0-|
Db|-3-0-2-0---0h3-0---0h3-0---0h3-0-2-0--0h3-0---0h3-0-2-0---|-0-0-0--0-|

Eb|--------------------------------------------------------------------|
Bb|--------------------------------------------------------------------|
Gb|--------------------------------------------------------------------|
Db|--------------------------------------------5-5---------------------|
Ab|-0--0-0-0--0-0--0-0-0---3-3-3--3-3--3-3--5--5-5--5-5-5---1-1-1--1-1-|
Db|-0--0-0-0--0-0--0-0-0---3-3-3--3-3--3-3--5--5-5--5-5-3---1-1-1--1-1-|

  PLAY 2X                                       W/WAH           BORN TO DIE

Eb|----------------------|------------------------|----||--------------|
Bb|----------------------|------------------------|---*||--------------|
Gb|----------------------|------------------------|----||------6-------|
Db|----------------------|----------4~---8----7~--|----||------4-----8-|
Ab|--1-1-1--1--0-0-0-----|----------4~---6----5~--|---*||------4-----6-|
Db|--1-1-1--1--0-0-0-----|----------4~------------|----||------4-------|

                      REPEAT TILL END

Eb|-------|-----------------------------|
Bb|-------|-----------------------------|
Gb|-------|-----------------------------|
Db|-----7-|-----------------------------|
Ab|-----5-|-----12--12--12--12--12---12-|
Db|-------|-----12--12--12--12--12---12-|
Related for My Ruin tab