Song name
# A B C D E F G H I J K L M N O P Q R S T U V W X Y Z

Sevendust - See And Believe tab

Band- Sevendust
Song- See And Believe
Album- Next

I actually tabbed this out by mistake. I thought this song was Desertion for some reason 
learned the whole thing. Here's everything but the solo.

Tuning- Standard Sevendust tuning(B,F#,B,E,G#,C#)
*= Harmonics

Intro
|--------------------------------------------------|
|--------------------------------------------------|
|--------------------------------------------------|
|--------------------------------------------------|
|--------------------------------------------------|
|-0-0--0-0-0-0-0--0-0-0-0-0--0-0-0-0-0-5*-5*-5*-5*-|

Verse- Clean
|------------------------------------------|
|------------------------------------------|
|-----7~-------7~-------7~-------7~-----7~-|
|------------------------------------------|
|---5--------5--------5--------5------6----|
|-0--------5--------0--------5------7------|

|---------------------------------------------|
|---------------------------------------------|
|-----7---7---7---7-------7---7-------7---7---|
|---------------------------------------------|
|---5---5---5---5---5---5---5---5---6---6---6-|
|-0-------------------5-----------7-----------|

Pre-Chorus
|------------------|
|------------------|
|------------------|
|------------------|
|-/555555555-------|
|-----------666555-|

Chorus
|-------------------------------------------|
|-------------------------------------------|
|-----------------------------7/9-9/10-10-9-|
|-8-8-8-8-8-8-8-8-8-8-3-3-3-3-x-x-x-x--x--x-|
|-8-8-8-8-8-8-8-8-8-8-3-3-3-3-5/7-7/8--8--7-|
|-8-8-8-8-8-8-8-8-8-8-3-3-3-3---------------|

|----------------------------------------------|
|----------------------------------------------|
|----------------------------------------------|
|-8-8-8-8-8-3-3-3-3-3-10-10-10-10-10-8-8-8-8-8-|
|-8-8-8-8-8-3-3-3-3-3-10-10-10-10-10-8-8-8-8-8-|
|-8-8-8-8-8-3-3-3-3-3-10-10-10-10-10-8-8-8-8-8-|

Play Intro

Verse 2-(Slightly different from the first verse)
|----------------------------------------------------|
|----------------------------------------------------|
|-----7----------7----------7----------7--------7----|
|----------------------------------------------------|
|---5---5~-----5---5~-----5---5~-----5---5~---6---6~-|
|-0----------5----------0----------5--------7--------|

The second part of verse 2 is the same as verse 1.

Play Pre-Chorus(B string gets palm muted this time)

Fill
|---------|
|---------|
|---------|
|-0-0-0-0-|
|-0-0-0-0-|
|-0-0-0-0-|
P.M......

Play Chorus

Bridge
|-----------------------------------------------|
|-----------------------------------------------|
|-----------------------------------------------|
|-0-0--0-0-0-0-0--0-0-0-0-0--0-0-0-0-0--0-0-0-0-|
|-0-0--0-0-0-0-0--0-0-0-0-0--0-0-0-0-0--0-0-0-0-|
|-0-0--0-0-0-0-0--0-0-0-0-0--0-0-0-0-0--0-0-0-0-|
P.M..  .........  .........  .........  .......

They add this at the end of the second time playing the bridge(right before the solo)
|----|
|----|
|----|
|----|
|-5^-|
|----|

Solo-Don't know yet,play bridge for backing.

Play Chorus

Play Intro

That's all,look for Hero very soon!
Tap to rate this tab
 
# A B C D E F G H I J K L M N O P Q R S T U V W X Y Z