Song name
# A B C D E F G H I J K L M N O P Q R S T U V W X Y Z

Sevendust - Deathstar tab

Band - Sevendust
Song - Deathstar
Album - Alpha (2007)
Tuning - B,Gb,B,E,Ab,Db

Notes: Here's already my second installment of new Sevendust off their new album Alpha. 
cool song here and awesome to play, enjoy!

UPDATE 3/16/07: Fixed Intro, Bridge, Chorus, and Fills(basically I've re-done everything)

Intro - Both Guitars
|--------------------------------------------|
|--------------------------------------------|
|--------------------------------------------|
|--------------------------------------------|  4x
|-------------------------------0-0--0-0-0-0-|
|-5p3p0-7p5p0-5p3p0-7p5p0-5p3p0-0-0--0-0-0-0-|
                                . .  . . . .

Verse - Both Guitars
|--------------------------------------------------|
|--------------------------------------------------|
|--------------------------------------------------|
|--------------------------------------------------|   2x
|-5--------5--------0-0--0-5--------5*-5*-5*-5*-5*-|
|---6-5-3b---6-5-3b-0-0--0---6-5-3b-5*-5*-5*-5*-5*-|
                    . .  .          .  .  .  .  .

|-----------------|
|-----------------|
|-----------------|
|-----------------|
|-----------------|
|-0-1-1-1-1-1-1-1-|

Chorus - Both Guitars
|-----------------------------------------------------------|
|-----------------------------------------------------------|
|-----------------------------------------------------------|
|-----------------------------------------------------------|
|-3h5-3h5-----------5h6-------3h5-3h5-----------------------|
|---------0-0-0-0-0-----0-0-0---------0-0-0-5-5-5-5-1-1-1-1-|
            . . . .     .   .           . .

Chorus Continued
|--------------------------------------------------|
|--------------------------------------------------|
|--------------------------------------------------|
|--------------------------------------------------|
|-3h5-3h5-----------5h6-------7h8-8h10-----0-0-0-0-|
|---------0-0-0-0-0-----0-0-0----------0-0-0-0-0-0-|
            . . . .     .   .            . . . . .

Fill - Both Guitars
|-------------------------------------------------|
|-------------------------------------------------|
|-------------------------------------------------|
|-------------------------------------------------|
|-0h3h5-0h3h5-0h5h6-0h5h6-0h7h8-0h7h8-0h5h6-0h5h6-|
|-------------------------------------------------|

Play Intro - Guitar 2 adds harmonics like in the Verse

Play Verse

Play Chorus

Bridge - Both Guitars
|----------------------------------------------------------------------------|
|----------------------------------------------------------------------------|
|----------------------------------------------------------------------------|
|-0~----------------------0~----------------------1~----------------------1~-|
|-0~----0-0-0-0-0-0-0-0-0-0~----0-0-1-1-1-1-1-1-1-1~----0-0-1-1-1-1-1-1-1-1~-|
|-0~----0-0-0-0-0-0-0-0-0-0~----0-0-1-1-1-1-1-1-1-1~----0-0-1-1-1-1-1-1-1-1~-|
          . . . . . . . .         . . . . . . . .         . . . . . . . .

|-----------------|
|-----------------|
|-----------------|
|-1/5-5-5-5-5-5-5-|
|-1/5-5-5-5-5-5-5-|
|-1/5-5-5-5-5-5-5-|

Bridge 2 - Both Guitars
|-----------------------------------------------------------------------|
|-----------------------------------------------------------------------|
|-----------------------------------------------------------------------|
|-----------------------------------------------------------------------|
|-0h3h5-0h3h5-0h5h6-0h5h6-0h7h8-0h7h8-0h8h10-0h8h10-0-0-0-0-0-0-0-0-0-0-|
|---------------------------------------------------0-0-0-0-0-0-0-0-0-0-|
                                                    . . . . . . . . . .

Play Verse

Play Chorus

Play Intro until end w/harmonics from verse added by Guitar 2

That's it, enjoy!

* = harmonic
Tap to rate this tab
# A B C D E F G H I J K L M N O P Q R S T U V W X Y Z