Song name
# A B C D E F G H I J K L M N O P Q R S T U V W X Y Z

Sevendust - Story Of Your Life tab

Band - Sevendust
Song - Story Of Your Life
Album - Alpha (2007)
Tuning - B,Gb,B,E,Ab,Db

Notes: I'm doing this completely from memory so if I screwed up in some spots, I'll fix 
later, but for now, this is the basics of this song. I don't have the background parts 
to this song or Deathstar, I'm working on them both.

Intro - Begin softly and gradually get louder
|-------------------------------------------------------|
|-------------------------------------------------------|
|-------------------------------------------------------|
|-------------------------------------------------------|
|---------3-5---5h6-5---5h6-5---------3-5---5h6-5---5h6-|
|-0-3-5-0-----0-------0-------0-3-5-0-----0-------0-----|

Verse
|------------------------------------------------------------|
|------------------------------------------------------------|
|------------------------------------------------------------|
|------------------------------------------------------------|
|-0-0-0-0-00000--0-0-0-0-00000---------3-5---------3-5-------|
|-0-0-0-0-00000--0-0-0-0-00000-0-3-5-0-----0-3-5-0-----0-5-3-|
  . . . . .....  . . . . .....

|-------------------------------------------------------------|
|-------------------------------------------------------------|
|-------------------------------------------------------------|
|-------------------------------------------------------------|
|-0-0-0-0-00000--0-0-0-0-00000---------3-5---------3-5--------|
|-0-0-0-0-00000--0-0-0-0-00000-0-3-5-0-----0-3-5-0-----0-5-3*-|
  . . . . .....  . . . . .....

Pre-Chorus
|-------------------------------------------------|
|-------------------------------------------------|
|-------------------------------------------------|
|-5-5-5-5-5-5-5-5-6-6-6-6-5-5-5-5-5-5-5-5-6-6-6-6-|
|-------------------------------------------------|
|-------------------------------------------------|
  . . . . . . . .         . . . . . . . .

Chorus
|------------------------------------------------------|
|------------------------------------------------------|
|------------------------------------------------------|
|------------------------------10-10-10-10-12-12-12-12-|
|-0-0-0-0-00000--0-0-0-0-00000-10-10-10-10-12-12-12-12-|
|-0-0-0-0-00000--0-0-0-0-00000-10-10-10-10-12-12-12-12-|
  . . . . .....  . . . . .....

|--------------------------------------------------|
|--------------------------------------------------|
|--------------------------------------------------|
|------------------------------10-10-10-10-7-7-7-7-|
|-0-0-0-0-00000--0-0-0-0-00000-10-10-10-10-7-7-7-7-|
|-0-0-0-0-00000--0-0-0-0-00000-10-10-10-10-7-7-7-7-|
  . . . . .....  . . . . .....

Play Verse

Pre-Chorus Variation
|-------------------------------------------------|
|-------------------------------------------------|
|-------------------------------------------------|
|-5-5-5-5-5-5-5-5-6-6-6-6-5-5-5-5-5-5-5-5-6-6-6-6-|
|-5-5-5-5-5-5-5-5-6-6-6-6-5-5-5-5-5-5-5-5-6-6-6-6-|
|-5-5-5-5-5-5-5-5-6-6-6-6-5-5-5-5-5-5-5-5-6-6-6-6-|

Chorus Variation
|----------------------------------------------------------|
|----------------------------------------------------------|
|----------------------------------------------------------|
|----------------------------------10-10-10-10-12-12-12-12-|
|-0-0-0-0-00000--0-0-0-0-00000-1p0-10-10-10-10-12-12-12-12-|
|-0-0-0-0-00000--0-0-0-0-00000-1p0-10-10-10-10-12-12-12-12-|
  . . . . .....  . . . . .....

|------------------------------------------------------|
|------------------------------------------------------|
|------------------------------------------------------|
|----------------------------------10-10-10-10-7-7-7-7-|
|-0-0-0-0-00000--0-0-0-0-00000-1p0-10-10-10-10-7-7-7-7-|
|-0-0-0-0-00000--0-0-0-0-00000-1p0-10-10-10-10-7-7-7-7-|
  . . . . .....  . . . . .....

Bridge/Outro - Guitar 1
|----------------------------------------|
|----------------------------------------|
|----------------------------------------|
|----------------------------------------|
|-0-0--0-0--00000000--00000000--0-0--0-0-|
|-0-0--0-0--00000000--00000000--0-0--0-0-|
  . .  . .  ........  ........  . .  . .

Guitar 2
|----------------------------------------|
|----------------------------------------|
|-7b---7b--------------------------------|
|-x----x---------------------------------|
|-5b---5b---00000000--00000000--0-0--0-0-|
|-----------00000000--00000000--0-0--0-0-|
            ........  ........  . .  . .

Notes: There are so many variations to the Bridge/Outro that I can't tab them all out 
since they're so slight you can listen to the song for all the variations.

Well, that's pretty much it for this song. This is kinda my rough sketch for tabbing 
song, I still have to work out a few parts, but this gives you the basic idea. Enjoy!
Tap to rate this tab
# A B C D E F G H I J K L M N O P Q R S T U V W X Y Z