Song name
# A B C D E F G H I J K L M N O P Q R S T U V W X Y Z

Sevendust - Under tab

Band - Sevendust
Song - Under
Album - Alpha (2007)
Tuning - B,Gb,B,E,Ab,Db

Notes: Yet another song that I'm learning that I haven't completed. I'm putting these 
on here un-completed because I'm still working on them to get them perfect. This one's 
missing the solo, so this is almost the whole song.

Intro
|--------------------------------------|
|--------------------------------------|
|--------------------------------------|
|--------------------------------------|  3x
|----------------------------------5---|
|-4-4-4-4--4-4-4--4-4-4--4-4-4-5p4---4-|
  . . .    . .    . .    . . .

|-----------------------------|
|-----------------------------|
|-----------------------------|
|-----------------------------|
|-----------------------------|
|-4-4-4-4--4-4-4--4-4-4--4-4\-|
  . . .    . .    . .    .

Verse
|---------------------|
|---------------------|
|---------------------|
|---------------------|  3x
|---------------------|
|-4-4-4-0--0-0--0-0-0-|
  . . .    .    . . .

|---------------------|
|---------------------|
|---------------------|
|---------------------|
|---------------------|
|-2-2-2-2--0-0--0-0-0-|
  . . .    .    . . .

Pre-Chorus
|---------------------------------|
|---------------------------------|
|---------------------------------|
|---------------------------------|
|-2-2-2-2-2-2-2-2-6-6-6-6-7-7-7-7-|
|-2-2-2-2-2-2-2-2-6-6-6-6-7-7-7-7-|
  . . . . . . . .

|-------------------|
|-------------------|
|-6-7\6-7\6-7\6-7\6-|
|-x-x-x-x-x-x-x-x-x-|  Repeats
|-4-5\4-5\4-5\4-5\4-|
|-------------------|

Chorus
|-----------------------------------------------------------------|
|-----------------------------------------------------------------|
|-----------------------------------------------------------------|
|-----------------------------------------------------------------|
|-------------5-5-5-5-4-4-4-4-4/5-------------2-2-2-4-0-0-0-0-0-0-|
|-4-4-4-4-4-4---------------------2-2-2-2-2-2---------------------|

|-------------------------------------------------|
|-------------------------------------------------|
|-------------------------------------------------|
|---------------------------------2-2-2-2-0-0-0-0-|
|-------------5-5-5-5-4-4-2-2-4-4-2-2-2-2-0-0-0-0-|
|-4-4-4-4-4-4---------------------2-2-2-2-0-0-0-0-|

Chorus Ending
|-----------------|
|-----------------|
|---------7-7-6-7-|
|-2-2-2-2-x-x-x-x-|
|-2-2-2-2-5-5-4-5-|
|-2-2-2-2---------|

Bridge
|---------------------------|
|---------------------------|
|---------------------------|
|---------4-4-----------4-4-|
|-444444444-4---444444444-4-|
|---------------------------|
  ......... .   ......... .

|------------------|
|------------------|
|------------------|
|-4--0-----4--6--0-|
|-4--0-----4--6--0-|
|-4--0-----4--6--0-|

|--------------------------------|
|--------------------------------|
|--------------------------------|
|--------------------------------|
|---------4--4--4-5p4------------|
|-444444444--4--4-----5p4-5b-4p0-|
  .........  .  .

|--------------------------------|
|--------------------------------|
|--------------------------------|
|--------------------------------|
|---------4--4--4-5p4------------|
|-444444444--4--4-----5p4-5b-4\2-|
  .........  .  .

Enjoy whatevers here, I'll finish it when I'm a little more awake.
Tap to rate this tab
 
# A B C D E F G H I J K L M N O P Q R S T U V W X Y Z