Song name
# A B C D E F G H I J K L M N O P Q R S T U V W X Y Z

Sevendust - Too Close To Hate tab

Band - Sevendust
Song - Too Close To Hate
Album - Sevendust (1997)
Tuning - B,Gb,B,E,Ab,Db

Notes: Here's a very cool song to play by 7dust off their very first record. I combined 
2 guitars into 1 to make it easier somewhat. There's also a lot of effects used in this 
especially during the verse. Enjoy!

Intro
|---------------------------------|
|---------------------------------|
|-------------------------7-7-7-7-|
|-------------------------x-6-6-6-|  Repeats
|-0-0--0-0--0--0-0-0--0-0-5-5-5-5-|
|-0-0--0-0--0--0-0-0--0-0---------|
  . .  . .  .  . . .  . .

1st Verse
|-----------------------------|
|-----------------------------|
|-7-7-7-7-----------7-7-7-7---|
|-x-6-6-6-----------x-6-6-6---|  Repeats
|-5-5-5-5-0---------5-5-5-5-0-|
|---------0-----------------0-|
          .                 .

Fill
|---------|
|---------|
|---------|
|---------|
|-0--0--0-|
|-0--0--0-|
  .  .  .

Play Intro for Chorus

Post-Chorus
|--------------------|
|--------------------|
|--------------------|
|--------------------|  Repeats
|---------0-0--0-0-6-|
|-3p0-3p0-0-0--0-0-6-|
          . .  . .

|------------|
|------------|
|------------|
|------------|
|------------|
|-3b--3b--3b-|

2nd Verse
|---------------------------------|
|---------------------------------|
|-7-7-7-7------------7-7-7-7------|
|-x-6-6-6------------x-6-6-6------|  Repeats
|-5-5-5-5-0--0-------5-5-5-5-0--0-|
|---------0--0---------------0--0-|
          .  .               .  .

Play Chorus

Play Post-Chorus

Bridge
|-----------------------------------------|
|-----------------------------------------|
|-7-7-----7-7-----7-----10-10-----7-7-----|
|-x-x-----x-x-----x-----8--8------5-5-----|
|-5-5-0-0-5-5-0-0-5-0-0-8--8--0-0-5-5-0-0-|
|-0-0-0-0-0-0-0-0-0-0-0-8--8--0-0-5-5-0-0-|
      . .     . .   . .       . .     . .

|-----------------------------------------|
|-----------------------------------------|
|-7-7-----7-7-----7-----7-7-----7-7-----7-|
|-x-x-----x-x-----x-----5-5-----5-5-----5-|
|-5-5-0-0-5-5-0-0-5-0-0-5-5-0-0-5-5-0-0-5-|
|-4-4-0-0-4-4-0-0-4-0-0-5-5-0-0-5-5-0-0-5-|
      . .     . .   . .     . .     . .

Bridge 2 w/wah
|-----------------------------------|
|-----------------------------------|
|-----------------------------------|
|-----------------------------------|  Repeats
|-----------------------------------|
|-3p0-3p0-0-0-0--0-6p0-6p0-0-0-0--0-|

Bridge 3
|-----------------------------------|
|-----------------------------------|
|-----------------------------------|
|-----------------------------------|  Repeats
|-3p0-3p0-0-0-0--0-6p0-6p0-0-0-0--0-|
|-3p0-3p0-0-0-0--0-6p0-6p0-0-0-0--0-|

Play Bridge

Outro
|--------------------------------|
|--------------------------------|
|--------------------------------|
|--------------------------------|
|-3p0-3p0-0-0-0----6p0-6p0-0-0-0-|
|-3p0-3p0-0-0-0----6p0-6p0-0-0-0-|
          . . .            . . .

|---------------------------------|
|---------------------------------|
|-------------5*---------------5*-|
|---------------------------------|
|-3p0-3p0-0-0------6p0-6p0-0-0----|
|-3p0-3p0-0-0------6p0-6p0-0-0----|
          . .              . .

That's all, rather simple song, fun to play though.
Tap to rate this tab
 
# A B C D E F G H I J K L M N O P Q R S T U V W X Y Z