Song name
# A B C D E F G H I J K L M N O P Q R S T U V W X Y Z

Sevendust - Clueless tab

Band - Sevendust
Song - Clueless
Album - Alpha (2007)
Tuning - B,Gb,B,E,Ab,Db

Intro - Clean
|-------------------------------------|
|-------------------------------------|
|-------------------------------------|
|-------------------------------------| Repeats
|-------------------------------------|
|-3-55555555-3-55555555-3-55555555-5b-|

Chorus - Not exact strumming pattern
|---------------------------------|
|---------3-----------------------|
|---------2-----------------------|
|-8---7---0---5---3---------------|
|-8---7---0---5---3---------------|
|-8---7---0---5---3---------------|

Post-Chorus
|-----------------------------------|
|-----------------------------------|
|-----------------------------------|
|-----------------------------------|
|-----------3-------------------x-0-|
|-0-22222222--2-2-2p0-0-2-2p0-0-x-0-|

He adds this in after he plays above every other time
|----------|
|----------|
|-777777/8-|
|-xxxxxx-x-|
|-555555/6-|
|----------|

Bridge
|-------------------------|
|-------------------------|
|-------------------------|
|-------------------------|
|-------------------------|
|-0--0-0-0-0-0-2--0-2/12~-|
     . . . . .    .

|----------|
|----------|
|-777777/8-|
|-xxxxxx-x-|
|-555555/6-|
|----------|

|----------------------------------|
|----------------------------------|
|----------------------------------|
|----------------------------------|
|----------------------------------|
|-0--0-0-0-0-0-2--0-2/12--12/13\12-|
     . . . . .    .

|--------------------------------------|
|--------------------------------------|
|--------------------------------------|
|--------------------------------------|  12's not 1's and 2's
|--------------------------------------|
|-0--0-0-0-0-0-2--0-2/12--121212121212-|
     . . . . .    .       ............

|------------------------|
|------------------------|
|------------------------|
|------------------------|
|--------------2---1---3-|
|-0--0-0-0-0-0-2-0-1-0-3-|
     . . . . .   .   .

Solo - Guitar 2 - Guitar 1 plays Chorus under it - tremolo picked
|-------------------------------------------|
|-------------------------------------------|
|-17////////14////////15//////////10///////-|
|-x---------x---------x-----------x---------|
|-15////////12////////13//////////8////////-|
|-------------------------------------------|

|-------------------------------------------|
|-------------------------------------------|
|-17////////19////////14/////15/////10/////-|
|-x---------x---------x------x------x-------|
|-15////////17////////12/////13/////8//////-|
|-------------------------------------------|

Tap to rate this tab
 
# A B C D E F G H I J K L M N O P Q R S T U V W X Y Z