Song name
# A B C D E F G H I J K L M N O P Q R S T U V W X Y Z

Sevendust - Confessions Of Hatred tab

===========================================================================
          confessions of hatred - sevendust
============================================================================

ive got the idea that ppl can add to this tab but this is a
start for yas all

tuneing - (DADGBE)
Lead Guitar - Sonny Mayo (guitar 1)
Rythem Guitar - John Connolly (guitar 2)

intro - guitar 2
|-------------------------------------------------------|
|-------------------------------------------------------|
|---(you can hear little pick slides in the background)-|
|-------------------------------------------------------|
|-------------------------------------------------------|
|-------------------------------------------------------|
Guitar 1 - 0:17
|-------------------------------------------------------|
|-------------------------------------------------------|
|-3-4-3brbr---------------------------------------------|
|-------------------------------------------------------|
|-------------------------------------------------------|
|-------------------------------------------------------|
Next part - Guitar 1 - 0:52
|-------------------------------------------------------|
|-------------------------------------------------------|
|-------------------------------------------------------|
|-------------------------------------------------------|
|----------------5555-5555-5555-5555--------------------|
|--6h8-6h8-6s5---5555-5555-5555-5555--------------------|
Guitar 2 - 0:52
|-------------------------------------------------------|
|-------------------------------------------------------|
|-------------------------------------------------------|
|-------------------------------------------------------|
|---------------1111-1111-1111-0000---------------------|
|--6h8-6h8-6s5--1111-1111-1111-0000---------------------|

Guitar 2 - 1:01
|-------------------------------------------------------|
|-------------------------------------------------------|
|-------------------------------------------------------|
|-------------------------------------------------------|
|-11111-1-11111-1-11111-00000000------------------------|
|-11111-1-11111-1-11111-00000000------------------------|

Guitar 1 - 1:01
|-------------------------------------------------------|
|-------------------------------------------------------|
|-3-xxxx-4-xxxx-6-xxxx-888888888------------------------|
|-x-xxxx-x-xxxx-x-xxxx-xxxxxxxxx------------------------|
|-1-xxxx-2-xxxx-4-xxxx-666666666------------------------|
|-------------------------------------------------------|

Thats all ive got so far and some of the chorus is

|------------------------------
|------------------------------
|-888888888-888888888-----------
|-xxxxxxxxx-888888888------------
|-666666666-888888888-----------
|------------------------------

So add to that plz guys so we can get a full tab

thannks
Tap to rate this tab
# A B C D E F G H I J K L M N O P Q R S T U V W X Y Z