Song name
# A B C D E F G H I J K L M N O P Q R S T U V W X Y Z

Sevendust - Follow Acoustic tab

Help us improve GuitareTab! Take a short survey!
#----------------------------------PLEASE NOTE---------------------------------#
#This file is the author's own work and represents their interpretation of the #
#song. You may only use this file for private study, scholarship, or research. #
#------------------------------------------------------------------------------##


  
Title: follow(acoustic version)
Artist: sevendust
Tabbed by: gavin Tracy

Q=100
  

Intro and verse

|--------------|--------------|--------------|--------------|
|--------------|--------------|--------------|--------------|
|-----0--------|-----0--------|-----0------0-|-----0----0---|
|---7----5-4-5-|---5----7-5-4-|---4----5-4---|---4----4-----|
|--------------|--------------|--------------|--------------|
|-9------------|-7------------|-5------------|-2------------|



pre Chorus

|-------------------------|-------------------------|
|-------------------------|-------------------------|
|-4-4-4-4-4-4-4-4-4-4-4-4-|-2-2-2-2-2-2-2-2-2-2-2-2-|
|-2-2-2-2-2-2-2-2-2-2-2-2-|-2-2-2-2-2-2-2-2-4-4-4-4-|
|-2-2-2-2-2-2-2-2-2-2-2-2-|-0-0-0-0-0-0-0-0-4-4-4-4-|
|-------------------------|-------------------------|


|-------------------------|-------------------------|
|-------------------------|-------------------------|
|-3-3-3-3-3-3-3-3-3-3-3-3-|-4-4-4-4-4-4-4-4-4-4-4-4-|
|-4-4-4-4-4-4-4-4-4-4-4-4-|-5-5-5-5-5-5-5-5-5-5-5-5-|
|-4-4-4-4-4-4-4-4-4-4-4-4-|-5-5-5-5-5-5-5-5-5-5-5-5-|
|-4-4-4-4-4-4-4-4-4-4-4-4-|-5-5-5-5-5-5-5-5-5-5-5-5-|



Chorus

|-----------------------|-----------------------|
|-----------------------|-----------------------|
|-4-4-4-4-4--4-4-4-4-4--|-2-2-2-2-2--4-4-4-4-4--|
|-2-2-2-2-2--2-2-2-2-2--|-2-2-2-2-2--2-2-2-2-2--|
|-2-2-2-2-2--3-3-3-3-3--|-0-0-0-0-0--2-2-2-2-2--|
|-----------------------|-----------------------|


|-----------------------|---------------------------------|
|-----------------------|---------------------------------|
|-4-4-4-4-4--4-4-4-4-4--|-6-6-6-6-6-6-6-6-7-7-7-7-7-7-7-7-|
|-2-2-2-2-2--2-2-2-2-2--|-4-4-4-4-4-4-4-4-5-5-5-5-5-5-5-5-|
|-2-2-2-2-2--3-3-3-3-3--|-4-4-4-4-4-4-4-4-5-5-5-5-5-5-5-5-|
|-----------------------|---------------------------------|


|-----------------------|-----------------------|
|-----------------------|-----------------------|
|-4-4-4-4-4--4-4-4-4-4--|-2-2-2-2-2--4-4-4-4-4--|
|-2-2-2-2-2--2-2-2-2-2--|-2-2-2-2-2--2-2-2-2-2--|
|-2-2-2-2-2--3-3-3-3-3--|-0-0-0-0-0--2-2-2-2-2--|
|-----------------------|-----------------------|


|-----------------------|---------------------------------|
|-----------------------|---------------------------------|
|-4-4-4-4-4--4-4-4-4-4--|-7-7-7-7-7-7-7-7-9-9-9-9-9-9-9-9-|
|-2-2-2-2-2--2-2-2-2-2--|-5-5-5-5-5-5-5-5-7-7-7-7-7-7-7-7-|
|-2-2-2-2-2--3-3-3-3-3--|-5-5-5-5-5-5-5-5-7-7-7-7-7-7-7-7-|
|-----------------------|---------------------------------|
Related for Follow Acoustic tab