Song name
# A B C D E F G H I J K L M N O P Q R S T U V W X Y Z

Seventeen Evergreen - Lunar One tab

Lunar One by Seventeen Evergreen
http://www.myspace.com//seventeenevergreen

*Keep Strumming all the notes til they change on the song*

The Strumming pattern for each power chord is....
D U U D U U D U D U U D U U D (Intro Only)

The rest of the song is pretty easy basic strumming but strum the way you like *Thumbs Up*

Intro (0:00-0:31)
------------------------|
------------------------|
-6--------6-------------|
-4---3----4----3--------|
-----1---------1--------|


Pickup To Verse (0:31-0:55)
----------------------------------|
----------------------------------|
----------------------------------|
----------------------------------|
-9----8-----9----8----9---8----13-|
-7----6-----7----6----7---6----11-|


Verse (0:55-1:23)
-----------------------------|
-----------------------------|
-----------------------------|
-6-------10------8-----------|
-4-------8-------6-----------|
-----------------------------|

Chorus (1:23-1:47)
-----------------------------|
-----------------------------|
-----------------------------|
--6----5----4----3-----------|
--4----3----2----1-----------|
-----------------------------|

Verse 2 (1:47-2:12)
---------------------|
---------------------|
---------------------|
----6--------10------|
----4--------8-------|
---------------------|

Pick up to Verse 3 (2:12-2:35)

790000
680000
(11)(13)0000

Verse 3 (2:35-3:02)

046000
08(10)000
068000

Last Chorus

046000
035000
024000
013000
Tap to rate this tab
 
# A B C D E F G H I J K L M N O P Q R S T U V W X Y Z